» » »

The Receiving End Of Sirens - Broadcast Quality Tabs

Artists:  A B C D E F G H I J K L M N O P Q R S T U V W X Y Z # 

Broadcast Quality Tabs

(ver. 3) Click to play this song!
The Receiving End Of Sirens
 Rating:
4/5 (4 votes)

 Broadcast Quality lessons Tabs too difficult? Try these video lessons and learn fast
 
                Please note that I am not claiming this tab as my own -I have recovered it from the 
archive of TREOS's fansite "Flee The Factory" which ceased to exist sometime ago. I am sure 
will be of use to many of you.

#------------------------------------------------------------------------------##

                                BROADCAST QUALITY
                   As recorded by The Receiving End Of Sirens
             (From the 2005 Album BETWEEN THE HEART AND THE SYNAPSE)

Words and Music by The Receiving End of Sirens

Gtr I (C G C F A D) - 'clean1'
Gtr II (C G C F A D) - 'clean2'
Gtr III (C G C F A D) - 'clean3'
Gtr IV (C G C F A D) - 'dist1'
Gtr V (C G C F A D) - 'dist2'
Gtr VI (C G C F A D) - 'dist 3'

 Intro
  Q=186
  N.C.
 4/4
  Gtr I
  E E E E E E E E   E E E E E E E E   E E E E E E E E   E E E E E E E E
|-5-------5-------|-----------------|-----------------|-----------------|
|-----6-------6---|-8---6---8---6---|-5---6---5---6---|-5-------5-------|
|---7---7---7---7-|---7---7---7---7-|---7---7---7---7-|---7---7---7---7-|
|-----------------|-----------------|-----------------|-----7-------7---|
|-----------------|-----------------|-----------------|-----------------|
|-----------------|-----------------|-----------------|-----------------|


  E E E E E E E E   E E E E E E E E   E E E E E E E E   E E E E E E E E
|-5-------5-------|-----------------|-----------------|------------------|
|-----6-------6---|-8---6---8---6---|-5---6---5---6---|-5-------5--------|
|---7---7---7---7-|---7---7---7---7-|---7---7---7---7-|---6---6---6---6--|
|-----------------|-----------------|-----------------|-----7-------7----|
|-----------------|-----------------|-----------------|------------------|
|-----------------|-----------------|-----------------|------------------|


  D5
  E E E E E E E E    E  E E E E E E E    E  E E E E E E E    E  E E E E E E E
|-5-------5-------|-------------------|-------------------|--------------------|
|-----6-------6---|--8----6---8---6---|--5----6---5---6---|--5--------5--------|
|---7---7---7---7-|-----7---7---7---7-|-----7---7---7---7-|-----7---7---7---7--|
|-----------------|-------------------|-------------------|-------7-------7----|
|-----------------|-------------------|-------------------|--------------------|
|-----------------|-------------------|-------------------|--------------------|
|
| Gtrs V, VI
| >
| W                 +W                  +W                  +W
|-----------------|-------------------|-------------------|--------------------|
|-----------------|-------------------|-------------------|--------------------|
|-----------------|-------------------|-------------------|--------------------|
|-0---------------|-(0)---------------|-(0)---------------|-(0)----------------|
|-0---------------|-(0)---------------|-(0)---------------|-(0)----------------|
|-0---------------|-(0)---------------|-(0)---------------|-(0)----------------|


  D5
  E E E E E E E E    E  E E E E E E E
|-5-------5-------|-------------------|
|-----6-------6---|--8----6---8---6---|
|---7---7---7---7-|-----7---7---7---7-|
|-----------------|-------------------|
|-----------------|-------------------|
|-----------------|-------------------|
|
| >
| W                 +W
|-----------------|-------------------|
|-----------------|-------------------|
|-----------------|-------------------|
|-0---------------|-(0)---------------|
|-0---------------|-(0)---------------|
|-0---------------|-(0)---------------|


                         Gtr IV
   E  E E E E E E E    E H..
|-------------------|---------------------|
|--5----6---5---6---|---------------------|
|-----7---7---7---7-|-10------------------|
|-------------------|---------------------|
|-------------------|---------------------|
|-------------------|---------------------|
|
| +W                   E E   E E E E E E
|-------------------|---------------------|
|-------------------|---------------------|
|-------------------|---------------------|
|-(0)---------------|--7---------5-7------|
|-(0)---------------|----5---7-8-----7-8--|
|-(0)---------------|---------------------|


  D5                                                                    Bb5
  E E E E E E E E   E E E E E E E E    E  E E E E E E E   E E E E E E E +E
|-5-------5-------|-----------------|-------------------|--------------------|
|-----6-------6---|-8---6---8---6---|--5----6---5---6---|-5-------5-5-5-(5)--|
|---7---7---7---7-|---7---7---7---7-|-----7---7---7---7-|---7---7------------|
|-----------------|-----------------|-------------------|-----7--------------|
|-----------------|-----------------|-------------------|--------------------|
|-----------------|-----------------|-------------------|--------------------|
|
| Gtr V
| Q   H       Q     Q   Q   E q   E   +Q    Q   Q   E E   q   q   E Q    E
|-----------------|-----------------|-------------------|--------------------|
|-----------------|-----------------|-------------------|--------------------|
|-----------------|-----------------|-------------------|----------------3---|
|-0-----------0---|-----0---0-0---0-|-(0)---0-------0-0-|-0---0---0-0----3---|
|-0-----------0---|-----0---0-0---0-|-(0)---0-------0-0-|-0---0---0-0----1---|
|-0-----------0---|-----0---0-0---0-|-(0)---0-------0-0-|-0---0---0-0--------|
|
| Gtr VI
| Q   H       Q     Q   Q   E q   E   +Q    Q   Q   E E   q   q   E Q    E
|-----------------|-----------------|-------------------|--------------------|
|-----------------|-----------------|-------------------|--------------------|
|-7-----------7---|-----7---7-7---7-|-(7)---7-------7-7-|-7---7---7-7----3---|
|-7-----------7---|-----7---7-7---7-|-(7)---7-------7-7-|-7---7---7-7----3---|
|-5-----------5---|-----5---5-5---5-|-(5)---5-------5-5-|-5---5---5-5----1---|
|-----------------|-----------------|-------------------|--------------------|


                                    E5                  Db5
   E  E E E E E E E   E E E E E E E E    E  E E E E E E E    E  E E E E E E E
|--5--------5-------|-----------------|-------------------|--------------------|
|-------6-------6---|-8---6---8---6---|--5----6---5---6---|--5--------5--------|
|-----7---7---7---7-|---7---7---7---7-|-----7---7---7---7-|-----6---6---6---6--|
|-------------------|-----------------|-------------------|-------7-------7----|
|-------------------|-----------------|-------------------|--------------------|
|-------------------|-----------------|-------------------|--------------------|
|
| +E  E Q   E E Q     E E Q   E E E E   +E  E Q   E E E E   +E  E Q   E E E E
|-------------------|-----------------|-------------------|--------------------|
|-------------------|-----------------|-------------------|--------------------|
|-(3)-3-3---3-3-3---|-3-3-3---3-3-3-9-|-(9)-9-9---9-9-9-6-|-(6)-6-6---6-6-6-6--|
|-(3)-3-3---3-3-3---|-3-3-3---3-3-3-9-|-(9)-9-9---9-9-9-6-|-(6)-6-6---6-6-6-6--|
|-(1)-1-1---1-1-1---|-1-1-1---1-1-1-7-|-(7)-7-7---7-7-7-4-|-(4)-4-4---4-4-4-4--|
|-------------------|-----------------|-------------------|--------------------|
|
| +E  E Q   E E Q     E E Q   E E E E   +E  E Q   E E E E   +E  E Q   E E E E
|-------------------|-----------------|-------------------|--------------------|
|-------------------|-----------------|-------------------|--------------------|
|-(3)-3-3---3-3-3---|-3-3-3---3-3-3-9-|-(9)-9-9---9-9-9-6-|-(6)-6-6---6-6-6-6--|
|-(3)-3-3---3-3-3---|-3-3-3---3-3-3-9-|-(9)-9-9---9-9-9-6-|-(6)-6-6---6-6-6-6--|
|-(1)-1-1---1-1-1---|-1-1-1---1-1-1-7-|-(7)-7-7---7-7-7-4-|-(4)-4-4---4-4-4-4--|
|-------------------|-----------------|-------------------|--------------------|


  D5
  PM---------------------------------------------------------------------|
  E E E E E E E E   E E E E E E E E    E  E E E E E E E   E E E E E E  E E
|-5-------5-------|-----------------|-------------------|-------------------|
|-----6-------6---|-8---6---8---6---|--5----6---5---6---|-5-------5---------|
|---7---7---7---7-|---7---7---7---7-|-----7---7---7---7-|---7---7---7----7--|
|-----------------|-----------------|-------------------|-----7--------7----|
|-----------------|-----------------|-------------------|-------------------|
|-----------------|-----------------|-------------------|-------------------|
|
| Q   H       Q     Q   Q   E q   E   +Q    Q   Q   E E   q   q   E Q.
|-----------------|-----------------|-------------------|-------------------|
|-----------------|-----------------|-------------------|-------------------|
|-----------------|-----------------|-------------------|-------------------|
|-0-----------0---|-----0---0-0---0-|-(0)---0-------0-0-|-0---0---0-0-------|
|-0-----------0---|-----0---0-0---0-|-(0)---0-------0-0-|-0---0---0-0-------|
|-0-----------0---|-----0---0-0---0-|-(0)---0-------0-0-|-0---0---0-0-------|
|
| Q   H       Q     Q   Q   E q   E   +Q    Q   Q   E E   q   q   E Q.
|-----------------|-----------------|-------------------|-------------------|
|-----------------|-----------------|-------------------|-------------------|
|-7-----------7---|-----7---7-7---7-|-(7)---7-------7-7-|-7---7---7-7-------|
|-7-----------7---|-----7---7-7---7-|-(7)---7-------7-7-|-7---7---7-7-------|
|-5-----------5---|-----5---5-5---5-|-(5)---5-------5-5-|-5---5---5-5-------|
|-----------------|-----------------|-------------------|-------------------|


  F5       Bb5   A5      F5       E5    A5      G5    F5
   E  E  E E E E E E   E  E  E  E E E E E   E E E E E E E E
|--5---------5-------|--------------------|-----------------|
|--------6-------8---|-6-----8----5---6---|-5---6---6---5---|
|-----7----7---7---7-|----7-----7---7---7-|---7---7---7---7-|
|--------------------|--------------------|-----------------|
|--------------------|--------------------|-----------------|
|--------------------|--------------------|-----------------|
|
| Gtrs V, VI
|  E  E  E E E E E E   E  E  E  E E E E E   E E E E E E E E
|--------------------|--------------------|-----------------|
|--------------------|--------------------|-----------------|
|-10-10-10-----------|---10-10-10-9-9-9---|-----------------|
|-10-10-10-8-8-8-7-7-|-7-10-10-10-9-9-9-7-|-7-7-5-5-5-3-3-3-|
|--8--8--8-8-8-8-7-7-|-7--8--8--8-7-7-7-7-|-7-7-5-5-5-3-3-3-|
|----------8-8-8-7-7-|-7----------------7-|-7-7-5-5-5-3-3-3-|


  D5
   >
                              ~~~~~~~~~~~~~~~~~
   W           +W            +W            +W
|-----------|-------------|-------------|---------||
|-----------|-------------|-------------|---------||
|-10--------|-(10)--------|-(10)--------|-(10)----||
|-----------|-------------|-------------|---------||
|--8--------|--(8)--------|--(8)--------|--(8)----||
|-----------|-------------|-------------|---------||
|
|  >
|                             ~~~~~~~~~~~~~~~~~
|  W           +W            +W            +W
|-----------|-------------|-------------|---------||
|-----------|-------------|-------------|---------||
|-----------|-------------|-------------|---------||
|--0--------|--(0)--------|--(0)--------|--(0)----||
|--0--------|--(0)--------|--(0)--------|--(0)----||
|--0--------|--(0)--------|--(0)--------|--(0)----||


 Verse
  N.C.
  Gtr IV
   |---3---|   |---3---|        |---3---|   |---3---|
   Q   Q   Q   Q   Q   Q        Q   Q   Q   Q   Q   Q
|---------------------------|----------------------------|
|---------------------------|----------------------------|
|--7---7---7---7---7---7----|---7---7---7---7---7---7----|
|---------------------------|----------------------------|
|-(5)-(5)-(5)-(5)-(5)-(5)---|--(5)-(5)-(5)-(5)-(5)-(5)---|
|---------------------------|----------------------------|
|
| Gtr V
|  W                           +W
|---------------------------|----------------------------|
|--6------------------------|--(6)-----------------------|
|--7------------------------|--(7)-----------------------|
|---------------------------|----------------------------|
|---------------------------|----------------------------|
|---------------------------|----------------------------|
|
| Gtr VI
|  ~~~~~~~~~~~~~~~~~~~~~~~~~~~~~~~~~~~~~~~~~~~~~~~~~~~~~~~
|  W                           +W
|-10------------------------|-(10)-----------------------|
|---------------------------|----------------------------|
|---------------------------|----------------------------|
|---------------------------|----------------------------|
|---------------------------|----------------------------|
|---------------------------|----------------------------|


   |---3---|   |---3---|        |---3---|   |---3---|
   Q   Q   Q   Q   Q   Q        Q   Q   Q   Q   Q   Q
|---------------------------|-----------------------------|
|---------------------------|-----------------------------|
|--9---9---9---9---9---9----|---9---9---9---9---9---9-----|
|---------------------------|-----------------------------|
|-(7)-(7)-(7)-(7)-(7)-(7)---|--(7)-(7)-(7)-(7)-(7)-(7)----|
|---------------------------|-----------------------------|
|
|  W                           +W
|---------------------------|-----------------------------|
|--8------------------------|--(8)------------------------|
|--9------------------------|--(9)------------------------|
|---------------------------|-----------------------------|
|---------------------------|-----------------------------|
|---------------------------|-----------------------------|
|
|~~~~~~~~~~~~~~~~~~~~~~~~~~~~~~~~~~
|  W                           +W
|-12------------------------|-(12)------------------------|
|---------------------------|-----------------------------|
|---------------------------|-----------------------------|
|---------------------------|-----------------------------|
|---------------------------|-----------------------------|
|---------------------------|-----------------------------|


   |---3---|   |---3---|        |---3---|   |---3---|
   Q   Q   Q   Q   Q   Q        Q   Q   Q   Q   Q   Q
|---------------------------|----------------------------|
|---------------------------|----------------------------|
|-10--10--10--10--10--10----|--10--10--10--10--10--10----|
|---------------------------|----------------------------|
|-(8)-(8)-(8)-(8)-(8)-(8)---|--(8)-(8)-(8)-(8)-(8)-(8)---|
|---------------------------|----------------------------|
|
|  W                           +W
|---------------------------|----------------------------|
|-10------------------------|-(10)-----------------------|
|-10------------------------|-(10)-----------------------|
|---------------------------|----------------------------|
|---------------------------|----------------------------|
|---------------------------|----------------------------|
|
|  ~~~~~~~~~~~~~~~~~~~~~~~~~~~~~~~~~~~~~~~~~~~~~~~~~~~~~~~
|  W                           +W
|-13------------------------|-(13)-----------------------|
|---------------------------|----------------------------|
|---------------------------|----------------------------|
|---------------------------|----------------------------|
|---------------------------|----------------------------|
|---------------------------|----------------------------|


   |---3---|   |---3---|        |---3---|   |---3---|
   Q   Q   Q   Q   Q   Q        Q   Q   Q   Q   Q   Q
|---------------------------|-----------------------------|
|---------------------------|-----------------------------|
|--9---9---9---9---9---9----|---9---9---9---9---9---9-----|
|---------------------------|-----------------------------|
|-(7)-(7)-(7)-(7)-(7)-(7)---|--(7)-(7)-(7)-(7)-(7)-(7)----|
|---------------------------|-----------------------------|
|
|  W                           +W
|---------------------------|-----------------------------|
|--8------------------------|--(8)------------------------|
|--9------------------------|--(9)------------------------|
|---------------------------|-----------------------------|
|---------------------------|-----------------------------|
|---------------------------|-----------------------------|
|
|~~~~~~~~~~~~~~~~~~~~~~~~~~~~~~~~~~
|  W                           +W
|-12------------------------|-(12)------------------------|
|---------------------------|-----------------------------|
|---------------------------|-----------------------------|
|---------------------------|-----------------------------|
|---------------------------|-----------------------------|
|---------------------------|-----------------------------|


   |-----3------|     |-----3------|         |----3-----|      |-----3------|
   Q     Q      Q     Q     Q      Q         Q      Q   Q      Q     Q      Q
|----------------------------------------|---------------------------------------|
|----------------------------------------|---------------------------------------|
|--7-----7------7-----7-----7------7-----|---7------7---7------7-----7------7----|
|----------------------------------------|---------------------------------------|
|-(5)---(5)----(5)---(5)---(5)----(5)----|--(5)----(5)-(5)----(5)---(5)----(5)---|
|----------------------------------------|---------------------------------------|
|
| Gtr V
|  E  E      E     E  E  E      E      E    +E   Q          Q     E      E     E
|----------------------------------------|---------------------------------------|
|----------------------------------------|---------------------------------------|
|--7--7------5-----5-------------------7-|--(7)--5----------9------------5-----7-|
|---------------------7--7------0--------|------------------------5--------------|
|----------------------------------------|---------------------------------------|
|----------------------------------------|---------------------------------------|
|
| Gtr II
|  Q         Q        Q         E      E    +E   Q          E  Q         Q
|----------------------------------------|------------------------------17-------|
|-----------17-------18------------------|---------------------------------------|
|-------------------------------------19-|-(19)-19------------19-----------------|
|----------------------------------------|---------------------------------------|
|-17---------------------------17--------|-----------------17--------------------|
|----------------------------------------|---------------------------------------|


   |-----3------|     |-----3------|         |----3-----|      |------3------|
   Q     Q      Q     Q     Q      Q         Q      Q   Q      Q      Q      Q
|----------------------------------------|-----------------------------------------|
|----------------------------------------|-----------------------------------------|
|--9-----9------9-----9-----9------9-----|---9------9---9------9------9------9-----|
|----------------------------------------|-----------------------------------------|
|-(7)---(7)----(7)---(7)---(7)----(7)----|--(7)----(7)-(7)----(7)----(7)----(7)----|
|----------------------------------------|-----------------------------------------|
|
|  E  E      E     E  E  E      E      E    +E   Q          Q      E      E      E
|----------------------------------------|-----------------------------------------|
|----------------------------------------|------------------6----------------------|
|--7--7------5-----5-------------------7-|--(7)--5------------------------5------7-|
|---------------------7--7------0--------|-------------------------5---------------|
|----------------------------------------|-----------------------------------------|
|----------------------------------------|-----------------------------------------|
|
|  Q         Q        Q         E      E    +E   Q          Q      E      E      E
|-----------13-------15---------------15-|-(15)-15---------17-----17-----17-----17-|
|-15---------------------------15--------|-----------------------------------------|
|----------------------------------------|-----------------------------------------|
|----------------------------------------|-----------------------------------------|
|----------------------------------------|-----------------------------------------|
|----------------------------------------|-----------------------------------------|


   |------3------|      |------3------|         |------3------|      |------3------|
   Q      Q      Q      Q      Q      Q         Q      Q      Q      Q      Q      Q
|-------------------------------------------|--------------------------------------------|
|-------------------------------------------|--------------------------------------------|
|-10-----10-----10-----10-----10-----10-----|--10-----10-----10-----10-----10-----10-----|
|-------------------------------------------|--------------------------------------------|
|-(8)----(8)----(8)----(8)----(8)----(8)----|--(8)----(8)----(8)----(8)----(8)----(8)----|
|-------------------------------------------|--------------------------------------------|
|
|  E   E      E      E  E   E      E      E    +E   Q             Q      E      E      E
|-------------------------------------------|--------------------12----------------------|
|-15--15-----13-----13------------15-----15-|-(15)-13--------------------------13-----15-|
|----------------------14--14---------------|---------------------------14---------------|
|-------------------------------------------|--------------------------------------------|
|-------------------------------------------|--------------------------------------------|
|-------------------------------------------|--------------------------------------------|
|
| Gtr II
|  E   E      E      E  E   E      E      E     E   E      E      E  E   E      E      E
|-17--17-----17-----17-17--17-----17-----17-|--17--17-----17-----17-17--17-----17-----17S|
|-------------------------------------------|--------------------------------------------|
|-------------------------------------------|--------------------------------------------|
|-------------------------------------------|--------------------------------------------|
|-------------------------------------------|--------------------------------------------|
|-------------------------------------------|--------------------------------------------|


   |------3------|      |------3------|         |------3-------|        |------3------|
   Q      Q      Q      Q      Q      Q         Q     Q        Q        Q      Q      Q
|-------------------------------------------|------------------------------------------------||
|-------------------------------------------|------------------------------------------------||
|--9------9------9------9------9------9-----|---9-----9--------9--------9------9------9------||
|-------------------------------------------|------------------------------------------------||
|-(7)----(7)----(7)----(7)----(7)----(7)----|--(7)---(7)------(7)------(7)----(7)----(7)-----||
|-------------------------------------------|------------------------------------------------||
|
|  E   E      E      E  E   E      E      E    +Q          E        E   E   E      E     E
|----------------------------------------15-|-(15)-------------------------------------------||
|-15--15-----13-----13------------13--------|--------------------------10--------------------||
|----------------------14--14---------------|------------(12)-----(10)-----12-----10-----9---||
|-------------------------------------------|------------------------------------------------||
|-------------------------------------------|------------------------------------------------||
|-------------------------------------------|------------------------------------------------||
|
|  E   E      E      E  E   E      E      E     E  E       E        E   E   E      E     E
|--5---5------5------5--3---3------3------3-|---3--3-------3--------3---1---1------0-----0---||
|-------------------------------------------|------------------------------------------------||
|-------------------------------------------|------------------------------------------------||
|-------------------------------------------|------------------------------------------------||
|-------------------------------------------|------------------------------------------------||
|-------------------------------------------|------------------------------------------------||


 Pre-Chorus
  N.C.
  Gtrs I, II
   H.           Q      H.         Q     H.           Q      H.           Q
|------------------|-----------------|------------------|---------------------|
|-10-----------10--|---8----------8--|-13-----------13--|--10-----------10----|
|------------------|-----------------|------------------|---------------------|
|------------------|-----------------|------------------|---------------------|
|------------------|-----------------|------------------|---------------------|
|------------------|-----------------|------------------|---------------------|
|
| Gtr III
|  Q    Q   Q   Q     +Q    Q  Q  Q    +Q    Q   Q   Q     +Q    Q   Q   Q
|------------------|-----------------|------------------|---------------------|
|--------------10--|-(10)---------8--|-(8)----------13--|-(13)----------13s===|
|----------10------|-----------9-----|----------10------|-----------10--------|
|------12----------|-------10--------|------12----------|-------12------------|
|------------------|-----------------|------------------|---------------------|
|------------------|-----------------|------------------|---------------------|


   H.           Q      H.         Q     H.           Q      H.           Q
|------------------|-----------------|------------------|--------------------||
|-10-----------10--|---8----------8--|-13-----------13--|--10-----------10---||
|------------------|-----------------|------------------|--------------------||
|------------------|-----------------|------------------|--------------------||
|------------------|-----------------|------------------|--------------------||
|------------------|-----------------|------------------|--------------------||
|
|  Q    Q   Q   Q     +Q    Q  Q  Q    +Q    Q   Q   Q     +Q    Q   Q   Q
|------------------|-----------------|------------------|--------------------||
|-10-----------10--|-(10)---------8--|-(8)----------13--|-(13)----------13---||
|----------10------|-----------9-----|----------10------|-----------10-------||
|------12----------|-------10--------|------12----------|-------12-----------||
|------------------|-----------------|------------------|--------------------||
|------------------|-----------------|------------------|--------------------||


 Chorus
  D5                                                                    Bb5
  Gtr V
  Q   H       Q     Q   Q   E q   E   +Q    Q   Q   E E   q   q   E Q   E
|-----------------|-----------------|-------------------|------------------|
|-----------------|-----------------|-------------------|------------------|
|-7-----------7---|-----7---7-7---7-|-(7)---7-------7-7-|-7---7---7-7---3--|
|-7-----------7---|-----7---7-7---7-|-(7)---7-------7-7-|-7---7---7-7---3--|
|-5-----------5---|-----5---5-5---5-|-(5)---5-------5-5-|-5---5---5-5---1--|
|-----------------|-----------------|-------------------|------------------|
|
| Gtr IV
| PM--------------------------------------------------------------------|
| E E E E E E E E   E E E E E E E E    E  E E E E E E E   E E E E E E E E
|-5-------5-------|-----------------|-------------------|------------------|
|-----6-------6---|-8---6---8---6---|--5----6---5---6---|-5-------5--------|
|---7---7---7---7-|---7---7---7---7-|-----7---7---7---7-|---7---7---7---7--|
|-----------------|-----------------|-------------------|-----7-------7----|
|-----------------|-----------------|-------------------|------------------|
|-----------------|-----------------|-------------------|------------------|
|
| Gtr VI
| Q   H       Q     Q   Q   E q   E   +Q    Q   Q   E E   q   q   E Q   E
|-----------------|-----------------|-------------------|------------------|
|-----------------|-----------------|-------------------|------------------|
|-----------------|-----------------|-------------------|---------------3--|
|-0-----------0---|-----0---0-0---0-|-(0)---0-------0-0-|-0---0---0-0---3--|
|-0-----------0---|-----0---0-0---0-|-(0)---0-------0-0-|-0---0---0-0---1--|
|-0-----------0---|-----0---0-0---0-|-(0)---0-------0-0-|-0---0---0-0------|


                                    E5                  Db5
  +E  E Q   E E Q     E E Q   E E E E   +E  E Q   E E E E   +E  E Q   E E E E
|-------------------|-----------------|-------------------|--------------------|
|-------------------|-----------------|-------------------|--------------------|
|-(3)-3-3---3-3-3---|-3-3-3---3-3-3-9-|-(9)-9-9---9-9-9-6-|-(6)-6-6---6-6-6-6--|
|-(3)-3-3---3-3-3---|-3-3-3---3-3-3-9-|-(9)-9-9---9-9-9-6-|-(6)-6-6---6-6-6-6--|
|-(1)-1-1---1-1-1---|-1-1-1---1-1-1-7-|-(7)-7-7---7-7-7-4-|-(4)-4-4---4-4-4-4--|
|-------------------|-----------------|-------------------|--------------------|
|
|  PM-----------------------------------------------------------------------|
|  E  E E E E E E E   E E E E E E E E    E  E E E E E E E    E  E E E E E E E
|--5--------5-------|-----------------|-------------------|--------------------|
|-------6-------6---|-8---6---8---6---|--5----6---5---6---|--5--------5--------|
|-----7---7---7---7-|---7---7---7---7-|-----7---7---7---7-|-----6---6---6---6--|
|-------------------|-----------------|-------------------|-------7-------7----|
|-------------------|-----------------|-------------------|--------------------|
|-------------------|-----------------|-------------------|--------------------|
|
| +E  E Q   E E Q     E E Q   E E E E   +E  E Q   E E E E   +E  E Q   E E E E
|-------------------|-----------------|-------------------|--------------------|
|-------------------|-----------------|-------------------|--------------------|
|-(3)-3-3---3-3-3---|-3-3-3---3-3-3-9-|-(9)-9-9---9-9-9-6-|-(6)-6-6---6-6-6-6--|
|-(3)-3-3---3-3-3---|-3-3-3---3-3-3-9-|-(9)-9-9---9-9-9-6-|-(6)-6-6---6-6-6-6--|
|-(1)-1-1---1-1-1---|-1-1-1---1-1-1-7-|-(7)-7-7---7-7-7-4-|-(4)-4-4---4-4-4-4--|
|-------------------|-----------------|-------------------|--------------------|


  D5           E5             F5            G5
 6/4
  H.           H.              H.            H.
|---------------------------|-----------------------------|
|---------------------------|-----------------------------|
|-7------------9------------|-10------------12------------|
|-7------------9------------|-10------------12------------|
|-5------------7------------|--8------------10------------|
|---------------------------|-----------------------------|
|
| PM----------------------------------------------------|
| E  E E E E E E  E E E E E    E  E E E E E  E  E E E E E
|-5--------5----------------|-----------------------------|
|------6-------8----6---8---|--5----6---5----5----6---5---|
|----7---7---7----7---7---7-|-----7---7---7-----7---7---7-|
|---------------------------|-----------------------------|
|---------------------------|-----------------------------|
|---------------------------|-----------------------------|
|
| H.           H.              H.            H.
|---------------------------|-----------------------------|
|---------------------------|-----------------------------|
|---------------------------|-----------------------------|
|-0------------2------------|--3-------------5------------|
|-0------------2------------|--3-------------5------------|
|-0------------2------------|--3-------------5------------|


  Bb5                             A5                  Db5
 4/4
  E E Q   E E Q     E E Q   E E E E   +E  E Q   E E E E   +E  E Q   E E E E
|-----------------|-----------------|-------------------|-------------------|
|-----------------|-----------------|-------------------|-------------------|
|-3-3-3---3-3-3---|-3-3-3---3-3-3-2-|-(2)-2-2---2-2-2-6-|-(6)-6-6---6-6-6-6-|
|-3-3-3---3-3-3---|-3-3-3---3-3-3-2-|-(2)-2-2---2-2-2-6-|-(6)-6-6---6-6-6-6-|
|-1-1-1---1-1-1---|-1-1-1---1-1-1-0-|-(0)-0-0---0-0-0-4-|-(4)-4-4---4-4-4-4-|
|-----------------|-----------------|-------------------|-------------------|
|
| E E E E E E E E   E E E E E E E E    E  E E E E E E E    E  E E E E E E E
|-5-------5-------|-----------------|-------------------|-------------------|
|-----6-------6---|-8---6---8---6---|--5----6---5---6---|--5--------5-------|
|---7---7---7---7-|---7---7---7---7-|-----7---7---7---7-|-----6---6---6---6-|
|-----------------|-----------------|-------------------|-------7-------7---|
|-----------------|-----------------|-------------------|-------------------|
|-----------------|-----------------|-------------------|-------------------|
|
| E E Q   E E Q     E E Q   E E E E   +E  E Q   E E E E   +E  E Q   E E E E
|-----------------|-----------------|-------------------|-------------------|
|-----------------|-----------------|-------------------|-------------------|
|-3-3-3---3-3-3---|-3-3-3---3-3-3-2-|-(2)-2-2---2-2-2-6-|-(6)-6-6---6-6-6-6-|
|-3-3-3---3-3-3---|-3-3-3---3-3-3-2-|-(2)-2-2---2-2-2-6-|-(6)-6-6---6-6-6-6-|
|-1-1-1---1-1-1---|-1-1-1---1-1-1-0-|-(0)-0-0---0-0-0-4-|-(4)-4-4---4-4-4-4-|
|-----------------|-----------------|-------------------|-------------------|


  D5
  Q   H       Q     Q   Q   E q   E   +Q    Q   Q   E E   q   q   E Q   E
|-----------------|-----------------|-------------------|------------------|
|-----------------|-----------------|-------------------|------------------|
|-7-----------7---|-----7---7-7---7-|-(7)---7-------7-7-|-7---7---7-7------|
|-7-----------7---|-----7---7-7---7-|-(7)---7-------7-7-|-7---7---7-7------|
|-5-----------5---|-----5---5-5---5-|-(5)---5-------5-5-|-5---5---5-5------|
|-----------------|-----------------|-------------------|------------------|
|
| E E E E E E E E   E E E E E E E E    E  E E E E E E E   E E E E E E E E
|-5-------5-------|-----------------|-------------------|------------------|
|-----6-------6---|-8---6---8---6---|--5----6---5---6---|-5-------5--------|
|---7---7---7---7-|---7---7---7---7-|-----7---7---7---7-|---7---7---7---7--|
|-----------------|-----------------|-------------------|-----7-------7----|
|-----------------|-----------------|-------------------|------------------|
|-----------------|-----------------|-------------------|------------------|
|
| Q   H       Q     Q   Q   E q   E   +Q    Q   Q   E E   q   q   E Q   E
|-----------------|-----------------|-------------------|------------------|
|-----------------|-----------------|-------------------|------------------|
|-----------------|-----------------|-------------------|------------------|
|-0-----------0---|-----0---0-0---0-|-(0)---0-------0-0-|-0---0---0-0------|
|-0-----------0---|-----0---0-0---0-|-(0)---0-------0-0-|-0---0---0-0------|
|-0-----------0---|-----0---0-0---0-|-(0)---0-------0-0-|-0---0---0-0------|


  F5    Bb5    A5    F5      E5    A5     G5    F5
   H    H       H     H       H    H       H    H
|------------|-------------|------------|------------||
|------------|-------------|------------|------------||
|-10---------|-------10----|--9---------|------------||
|-10----8----|--7----10----|--9----7----|--5----3----||
|--8----8----|--7-----8----|--7----7----|--5----3----||
|-------8----|--7----------|-------7----|--5----3----||
|
|  TP   TP      TP    TP      TP   TP
|  H    H       H     H       H    H       H    H
|------------|--------8----|------------|------------||
|------------|-------------|-10----8----|------------||
|--7----9----|-10----------|------------|-10----9----||
|------------|-------------|------------|------------||
|------------|-------------|------------|------------||
|------------|-------------|------------|------------||
|
|  H    H       H     H       H    H       H    H
|------------|-------------|------------|------------||
|------------|-------------|------------|------------||
|-10---------|-------10----|--9---------|------------||
|-10----8----|--7----10----|--9----7----|--5----3----||
|--8----8----|--7-----8----|--7----7----|--5----3----||
|-------8----|--7----------|-------7----|--5----3----||


 Verse
  D5
   E  E  E  Q   E  E  E    +E   E  E  Q   E  E  E
|--5--5--5--5---5--5--5-|--(5)--5--5--5---5--5--5-|
|--3--3--3--3---3--3--3-|--(3)--3--3--3---3--3--3-|
|-----------------------|-------------------------|
|-----------------------|-------------------------|
|-----------------------|-------------------------|
|-----------------------|-------------------------|
|
|  E  E  E  Q   E  E  E    +E   E  E  Q   E  E  E
|--8--8--8--8---8--8--8-|--(8)--8--8--8---8--8--8-|
|-10-10-10-10--10-10-10-|-(10)-10-10-10--10-10-10-|
|-----------------------|-------------------------|
|-----------------------|-------------------------|
|-----------------------|-------------------------|
|-----------------------|-------------------------|
|
|  >
|  W                       +W
|-----------------------|-------------------------|
|-----------------------|-------------------------|
|-----------------------|-------------------------|
|--0--------------------|--(0)--------------------|
|--0--------------------|--(0)--------------------|
|--0--------------------|--(0)--------------------|


   E   E  E  Q   E  E  E    +E   E  E  Q   E  E  E
|--5---5--5--5---5--5--5-|--(5)--5--5--5---5--5--5-|
|--3---3--3--3---3--3--3-|--(3)--3--3--3---3--3--3-|
|------------------------|-------------------------|
|------------------------|-------------------------|
|------------------------|-------------------------|
|------------------------|-------------------------|
|
|  E   E  E  Q   E  E  E    +E   E  E  Q   E  E  E
|--8---8--8--8---8--8--8-|--(8)--8--8--8---8--8--8-|
|-10--10-10-10--10-10-10-|-(10)-10-10-10--10-10-10-|
|------------------------|-------------------------|
|------------------------|-------------------------|
|------------------------|-------------------------|
|------------------------|-------------------------|
|
| +W                        +W
|------------------------|-------------------------|
|------------------------|-------------------------|
|------------------------|-------------------------|
|-(0)--------------------|--(0)--------------------|
|-(0)--------------------|--(0)--------------------|
|-(0)--------------------|--(0)--------------------|


  N.C.
  E E E Q  E E E   +E  E E Q  E E E   E E E Q  E E E   +E  E E Q  E E E
|-8-8-8-8--8-8-8-|-(8)-8-8-8--8-8-8-|-6-6-6-6--6-6-6-|-(6)-6-6-6--6-6-6--|
|-8-8-8-8--8-8-8-|-(8)-8-8-8--8-8-8-|-6-6-6-6--6-6-6-|-(6)-6-6-6--6-6-6--|
|----------------|------------------|----------------|-------------------|
|----------------|------------------|----------------|-------------------|
|----------------|------------------|----------------|-------------------|
|----------------|------------------|----------------|-------------------|
|
| E E E Q  E E E   +E  E E Q  E E E   E E E Q  E E E   +E  E E Q  E E E
|-6-6-6-6--6-6-6-|-(6)-6-6-6--6-6-6-|-4-4-4-4--4-4-4-|-(4)-4-4-4--4-4-4--|
|-3-3-3-3--3-3-3-|-(3)-3-3-3--3-3-3-|-6-6-6-6--6-6-6-|-(6)-6-6-6--6-6-6--|
|----------------|------------------|----------------|-------------------|
|----------------|------------------|----------------|-------------------|
|----------------|------------------|----------------|-------------------|
|----------------|------------------|----------------|-------------------|


  D5
   E  E  E  Q   E  E  E    +E   E  E  Q    E  E  E
|--5--5--5--5---5--5--5-|--(5)--5--5--5----5--5--5-|
|--3--3--3--3---3--3--3-|--(3)--3--3--3----3--3--3-|
|-----------------------|--------------------------|
|-----------------------|--------------------------|
|-----------------------|--------------------------|
|-----------------------|--------------------------|
|
|  E  E  E  Q   E  E  E    +E   E  E  Q    E  E  E
|--8--8--8--8---8--8--8-|--(8)--8--8--8----8--8--8-|
|-10-10-10-10--10-10-10-|-(10)-10-10-10---10-10-10-|
|-----------------------|--------------------------|
|-----------------------|--------------------------|
|-----------------------|--------------------------|
|-----------------------|--------------------------|
|
| Gtr VI
|  PM|             PM|                  PM|
|  E  E  H         E  E     H           E  E  Q
|-----------------------|--------------------------|
|-----------------------|--------------------------|
|--7--7------------7--7-|---------------7--7-------|
|--7--7------------7--7-|---------------7--7-------|
|--5--5------------5--5-|---------------5--5-------|
|-----------------------|--------------------------|


   E  E  E  Q   E  E  E    +E   E  E  Q    E  E  E
|--5--5--5--5---5--5--5-|--(5)--5--5--5----5--5--5--|
|--3--3--3--3---3--3--3-|--(3)--3--3--3----3--3--3--|
|-----------------------|---------------------------|
|-----------------------|---------------------------|
|-----------------------|---------------------------|
|-----------------------|---------------------------|
|
|  E  E  E  Q   E  E  E    +E   E  E  Q    E  E  E
|--8--8--8--8---8--8--8-|--(8)--8--8--8----8--8--8--|
|-10-10-10-10--10-10-10-|-(10)-10-10-10---10-10-10--|
|-----------------------|---------------------------|
|-----------------------|---------------------------|
|-----------------------|---------------------------|
|-----------------------|---------------------------|
|
|  PM|             PM|                  PM|
|  E  E  H         E  E     H           E  E  Q
|-----------------------|---------------------------|
|-----------------------|---------------------------|
|--7--7------------7--7-|---------------7--7--------|
|--7--7------------7--7-|---------------7--7--------|
|--5--5------------5--5-|---------------5--5--------|
|-----------------------|---------------------------|


  Bb5                                  Db5
  E E E Q  E E E   +E  E E Q   E E E   E E E Q  E E E   +E  E E Q   E E E
|-8-8-8-8--8-8-8-|-(8)-8-8-8---8-8-8-|-6-6-6-6--6-6-6-|-(6)-6-6-6---6-6-6--||
|-8-8-8-8--8-8-8-|-(8)-8-8-8---8-8-8-|-6-6-6-6--6-6-6-|-(6)-6-6-6---6-6-6--||
|----------------|-------------------|----------------|--------------------||
|----------------|-------------------|----------------|--------------------||
|----------------|-------------------|----------------|--------------------||
|----------------|-------------------|----------------|--------------------||
|
| E E E Q  E E E   +E  E E Q   E E E   E E E Q  E E E   +E  E E Q   E E E
|-6-6-6-6--6-6-6-|-(6)-6-6-6---6-6-6-|-4-4-4-4--4-4-4-|-(4)-4-4-4---4-4-4--||
|-3-3-3-3--3-3-3-|-(3)-3-3-3---3-3-3-|-6-6-6-6--6-6-6-|-(6)-6-6-6---6-6-6--||
|----------------|-------------------|----------------|--------------------||
|----------------|-------------------|----------------|--------------------||
|----------------|-------------------|----------------|--------------------||
|----------------|-------------------|----------------|--------------------||
|
| PM|        PM|             PM|       PM|        PM|             PM|
| E E H      E E    H        E E Q     E E H      E E    H        E E Q
|----------------|-------------------|----------------|--------------------||
|----------------|-------------------|----------------|--------------------||
|-3-3--------3-3-|-----------3-3-----|-6-6--------6-6-|-----------6-6------||
|-3-3--------3-3-|-----------3-3-----|-6-6--------6-6-|-----------6-6------||
|-1-1--------1-1-|-----------1-1-----|-4-4--------4-4-|-----------4-4------||
|----------------|-------------------|----------------|--------------------||


 Pre-Chorus
  N.C.
  Gtr II
   H.           Q      H.         Q     H.           Q      H.           Q
|------------------|-----------------|------------------|--------------------|
|-10-----------10--|---8----------8--|-13-----------13--|--10-----------10---|
|------------------|-----------------|------------------|--------------------|
|------------------|-----------------|------------------|--------------------|
|------------------|-----------------|------------------|--------------------|
|------------------|-----------------|------------------|--------------------|
|
| Gtr III
|  Q    Q   Q   Q     +Q    Q  Q  Q    +Q    Q   Q   Q     +Q    Q   Q   Q
|------------------|-----------------|------------------|--------------------|
|--------------10--|-(10)---------8--|-(8)----------13--|-(13)----------10---|
|----------10------|-----------9-----|----------10------|-----------10-------|
|------12----------|-------10--------|------12----------|-------12-----------|
|------------------|-----------------|------------------|--------------------|
|------------------|-----------------|------------------|--------------------|


  Bb5
  Gtr V
   Q    Q    Q    Q     Q    Q   Q   Q
|---------------------|------------------|
|-10-------------10---|-8------------8---|
|-----------10--------|----------9-------|
|------12-------------|-----10-----------|
|---------------------|------------------|
|---------------------|------------------|
|
| Gtr IV
|  E E  E E  E E  E E   E E  E E E E E E
|---------------------|------------------|
|---------------------|------------------|
|--7-7--7-7--7-7--7-7-|-9-9--9-9-9-9-9-9-|
|---------------------|------------------|
|---------------------|------------------|
|---------------------|------------------|
|
| Gtr VI
|  E E  E E  E E  E E   E E  E E Q   E E
|---------------------|------------------|
|---------------------|------------------|
|--3-3----3--3----3---|-3----3---3---3-3-|
|--3-3----3--3----3---|-3----3---3---3-3-|
|--1-1----1--1----1---|-1----1---1---1-1-|
|---------------------|------------------|


  Db5
   Q     Q     Q     Q       Q     Q     H
|-------------------------|--------------------------||
|-11----------------11----|-11----11-----------------||
|-------------10----------|-10----10-----------------||
|-------12----------------|--------------------------||
|-------------------------|--------------------------||
|-------------------------|--------------------------||
|
|  E  E  E  E  E  E  E  E    E  E  E  E  E  E  E  E
|-------------------------|--------------------------||
|-------------------------|--------------------------||
|-10-10-10-10-10-10-10-10s|=17-17-17-17-17-17-17-17--||
|-------------------------|--------------------------||
|-------------------------|--------------------------||
|-------------------------|--------------------------||
|
|  E  E  E  E  E  E  E  E    E  E  Q     H
|-------------------------|--------------------------||
|-------------------------|--------------------------||
|--6--6-----6--6-----6----|--6-----6-----------------||
|--6--6-----6--6-----6----|--6-----6-----------------||
|--4--4-----4--4-----4----|--4-----4-----------------||
|-------------------------|--------------------------||


 Chorus
  D5
   Q     H           Q       Q   Q   E q   E
|-------------------------|------------------|
|-------------------------|------------------|
|--7-----------------7----|------7---7-7---7-|
|--7-----------------7----|------7---7-7---7-|
|--5-----------------5----|------5---5-5---5-|
|-------------------------|------------------|
|
|  E  E  E  E  E  E  E  E    E E E E E E E E
|--5-----------5----------|------------------|
|--------6-----------6----|--8---6---8---6---|
|-----7-----7-----7-----7-|----7---7---7---7-|
|-------------------------|------------------|
|-------------------------|------------------|
|-------------------------|------------------|
|
|  E  E  E  E  E  E  E  E    W
|-12-12-12-12-12-12-12-12-|-10---------------|
|-------------------------|------------------|
|--9--9--9--9--9--9--9--9-|--7---------------|
|--0-----------------0----|------0---0-0---0-|
|--0-----------------0----|------0---0-0---0-|
|--0-----------------0----|------0---0-0---0-|
   Q     H           Q       Q   Q   E q   E


                                    Bb5
  +Q    Q   Q   E E   q   q   E Q   E
|-------------------|------------------|
|-------------------|------------------|
|-(7)---7-------7-7-|-7---7---7-7---3--|
|-(7)---7-------7-7-|-7---7---7-7---3--|
|-(5)---5-------5-5-|-5---5---5-5---1--|
|-------------------|------------------|
|
|  E  E E E E E E E   E E E E E E E E
|-------------------|------------------|
|--5----6---5---6---|-5-------5--------|
|-----7---7---7---7-|---7---7---7---7--|
|-------------------|-----7-------7----|
|-------------------|------------------|
|-------------------|------------------|
|
|  W                  W
|--8----------------|-6----------------|
|-------------------|------------------|
|--5----------------|-3-------------3--|
|-(0)---0-------0-0-|-0---0---0-0---3--|
|-(0)---0-------0-0-|-0---0---0-0---1--|
|-(0)---0-------0-0-|-0---0---0-0------|
  +Q    Q   Q   E E   q   q   E Q   E


                                    E5                  Db5
  +E  E Q   E E Q     E E Q   E E E E   +E  E Q   E E E E   +E  E Q   E E E E
|-------------------|-----------------|-------------------|--------------------|
|-------------------|-----------------|-------------------|--------------------|
|-(3)-3-3---3-3-3---|-3-3-3---3-3-3-9-|-(9)-9-9---9-9-9-6-|-(6)-6-6---6-6-6-6--|
|-(3)-3-3---3-3-3---|-3-3-3---3-3-3-9-|-(9)-9-9---9-9-9-6-|-(6)-6-6---6-6-6-6--|
|-(1)-1-1---1-1-1---|-1-1-1---1-1-1-7-|-(7)-7-7---7-7-7-4-|-(4)-4-4---4-4-4-4--|
|-------------------|-----------------|-------------------|--------------------|
|
|  E  E E E E E E E   E E E E E E E E    E  E E E E E E E    E  E E E E E E E
|--5--------5-------|-----------------|-------------------|--------------------|
|-------6-------6---|-8---6---8---6---|--5----6---5---6---|--5--------5--------|
|-----7---7---7---7-|---7---7---7---7-|-----7---7---7---7-|-----6---6---6---6--|
|-------------------|-----------------|-------------------|-------7-------7----|
|-------------------|-----------------|-------------------|--------------------|
|-------------------|-----------------|-------------------|--------------------|
|
| +E  E Q   E E Q     E E Q   E E E E   +E  E Q   E E E E   +E  E Q   E E E E
|-------------------|-----------------|-------------------|--------------------|
|-------------------|-----------------|-------------------|--------------------|
|-(3)-3-3---3-3-3---|-3-3-3---3-3-3-9-|-(9)-9-9---9-9-9-6-|-(6)-6-6---6-6-6-6--|
|-(3)-3-3---3-3-3---|-3-3-3---3-3-3-9-|-(9)-9-9---9-9-9-6-|-(6)-6-6---6-6-6-6--|
|-(1)-1-1---1-1-1---|-1-1-1---1-1-1-7-|-(7)-7-7---7-7-7-4-|-(4)-4-4---4-4-4-4--|
|-------------------|-----------------|-------------------|--------------------|


  D5           E5             F5            G5
 6/4
  H.           H.              H.            H.
|---------------------------|-----------------------------|
|---------------------------|-----------------------------|
|-7------------9------------|-10------------12------------|
|-7------------9------------|-10------------12------------|
|-5------------7------------|--8------------10------------|
|---------------------------|-----------------------------|
|
| E  E E E E E E  E E E E E    E  E E E E E  E  E E E E E
|-5--------5----------------|-----------------------------|
|------6-------8----6---8---|--5----6---5----5----6---5---|
|----7---7---7----7---7---7-|-----7---7---7-----7---7---7-|
|---------------------------|-----------------------------|
|---------------------------|-----------------------------|
|---------------------------|-----------------------------|
|
| H.           H.              H.            H.
|---------------------------|-----------------------------|
|---------------------------|-----------------------------|
|---------------------------|-----------------------------|
|-0------------2------------|--3-------------5------------|
|-0------------2------------|--3-------------5------------|
|-0------------2------------|--3-------------5------------|


  Bb5                             A5                  Db5
 4/4
  E E Q   E E Q     E E Q   E E E E   +E  E Q   E E E E   +E  E Q   E E E E
|-----------------|-----------------|-------------------|-------------------|
|-----------------|-----------------|-------------------|-------------------|
|-3-3-3---3-3-3---|-3-3-3---3-3-3-2-|-(2)-2-2---2-2-2-6-|-(6)-6-6---6-6-6-6-|
|-3-3-3---3-3-3---|-3-3-3---3-3-3-2-|-(2)-2-2---2-2-2-6-|-(6)-6-6---6-6-6-6-|
|-1-1-1---1-1-1---|-1-1-1---1-1-1-0-|-(0)-0-0---0-0-0-4-|-(4)-4-4---4-4-4-4-|
|-----------------|-----------------|-------------------|-------------------|
|
| E E E E E E E E   E E E E E E E E    E  E E E E E E E    E  E E E E E E E
|-5-------5-------|-----------------|-------------------|-------------------|
|-----6-------6---|-8---6---8---6---|--5----6---5---6---|--5--------5-------|
|---7---7---7---7-|---7---7---7---7-|-----7---7---7---7-|-----6---6---6---6-|
|-----------------|-----------------|-------------------|-------7-------7---|
|-----------------|-----------------|-------------------|-------------------|
|-----------------|-----------------|-------------------|-------------------|
|
| E E Q   E E Q     E E Q   E E E E   +E  E Q   E E E E   +E  E Q   E E E E
|-----------------|-----------------|-------------------|-------------------|
|-----------------|-----------------|-------------------|-------------------|
|-3-3-3---3-3-3---|-3-3-3---3-3-3-2-|-(2)-2-2---2-2-2-6-|-(6)-6-6---6-6-6-6-|
|-3-3-3---3-3-3---|-3-3-3---3-3-3-2-|-(2)-2-2---2-2-2-6-|-(6)-6-6---6-6-6-6-|
|-1-1-1---1-1-1---|-1-1-1---1-1-1-0-|-(0)-0-0---0-0-0-4-|-(4)-4-4---4-4-4-4-|
|-----------------|-----------------|-------------------|-------------------|


  D5
  Q   H       Q     Q   Q   E q   E   +Q    Q   Q   E E   q   q   E Q   E
|-----------------|-----------------|-------------------|------------------|
|-----------------|-----------------|-------------------|------------------|
|-7-----------7---|-----7---7-7---7-|-(7)---7-------7-7-|-7---7---7-7------|
|-7-----------7---|-----7---7-7---7-|-(7)---7-------7-7-|-7---7---7-7------|
|-5-----------5---|-----5---5-5---5-|-(5)---5-------5-5-|-5---5---5-5------|
|-----------------|-----------------|-------------------|------------------|
|
| E E E E E E E E   E E E E E E E E    E  E E E E E E E   E E E E E E E E
|-5-------5-------|-----------------|-------------------|------------------|
|-----6-------6---|-8---6---8---6---|--5----6---5---6---|-5-------5--------|
|---7---7---7---7-|---7---7---7---7-|-----7---7---7---7-|---7---7---7---7--|
|-----------------|-----------------|-------------------|-----7-------7----|
|-----------------|-----------------|-------------------|------------------|
|-----------------|-----------------|-------------------|------------------|
|
| Q   H       Q     Q   Q   E q   E   +Q    Q   Q   E E   q   q   E Q   E
|-----------------|-----------------|-------------------|------------------|
|-----------------|-----------------|-------------------|------------------|
|-----------------|-----------------|-------------------|------------------|
|-0-----------0---|-----0---0-0---0-|-(0)---0-------0-0-|-0---0---0-0------|
|-0-----------0---|-----0---0-0---0-|-(0)---0-------0-0-|-0---0---0-0------|
|-0-----------0---|-----0---0-0---0-|-(0)---0-------0-0-|-0---0---0-0------|


  F5          Bb5           A5          F5
   E  E  E  E  E  E  E  E    E  E  E  E  E  E  E  E
|-------------------------|-------------------------|
|-------------------------|-------------------------|
|-10-10-10-10-------------|-------------10-10-10-10-|
|-10-10-10-10--8--8--8--8-|--7--7--7--7-10-10-10-10-|
|--8--8--8--8--8--8--8--8-|--7--7--7--7--8--8--8--8-|
|--------------8--8--8--8-|--7--7--7--7-------------|
|
|  E  E  E  E  E  E  E  E    E  E  E  E  E  E  E  E
|-------------------------|-------------20-20-20-20-|
|-15-15-15-15-17-17-17-17-|-18-18-18-18-------------|
|-------------------------|-------------17-17-17-17-|
|-12-12-12-12-14-14-14-14-|-15-15-15-15-------------|
|-------------------------|-------------------------|
|-------------------------|-------------------------|
|
|  E  E  E  E  E  E  E  E    E  E  E  E  E  E  E  E
|-------------------------|-------------------------|
|-------------------------|-------------------------|
|-10-10-10-10-------------|-------------10-10-10-10-|
|-10-10-10-10--8--8--8--8-|--7--7--7--7-10-10-10-10-|
|--8--8--8--8--8--8--8--8-|--7--7--7--7--8--8--8--8-|
|--------------8--8--8--8-|--7--7--7--7-------------|


  E5          A5            G5          F5
   E  E  E  E  E  E  E  E    H           H
|-------------------------|--------------------------||
|-------------------------|--------------------------||
|--9--9--9--9-------------|--------------------------||
|--9--9--9--9--7--7--7--7-|--5-----------3-----------||
|--7--7--7--7--7--7--7--7-|--5-----------3-----------||
|--------------7--7--7--7-|--5-----------3-----------||
|
|  E  E  E  E  E  E  E  E    E  E  E  E  E  E  E  E
|-17-17-17-17-15-15-15-15-|--------------------------||
|-------------------------|-18-18-18-18-17-17-17-17--||
|-14-14-14-14-12-12-12-12-|--------------------------||
|-------------------------|-15-15-15-15-14-14-14-14--||
|-------------------------|--------------------------||
|-------------------------|--------------------------||
|
|  E  E  E  E  E  E  E  E    H           H
|-------------------------|--------------------------||
|-------------------------|--------------------------||
|--9--9--9--9-------------|--------------------------||
|--9--9--9--9--7--7--7--7-|--5-----------3-----------||
|--7--7--7--7--7--7--7--7-|--5-----------3-----------||
|--------------7--7--7--7-|--5-----------3-----------||


 Breakdown
  Bb5
 6/4
   E  E  E  E  E  E  E  E  E  E  E  E    E  E  E  E  E  E  H.
|-------------------------------------|-------------------19-----------------|
|-15h17-15h17-15h17-15h17-15h17-15h17-|-15h17-15h17-15h17-20-----------------|
|-------------------------------------|--------------------------------------|
|-------------------------------------|--------------------------------------|
|-------------------------------------|--------------------------------------|
|-------------------------------------|--------------------------------------|
|
|  PM---------------------------------------------------------------------|
|  E  E  E  E  E  E  E  E  E  E  E  E    E  E  E  E  E  E  E   E  E  E  E  E
|-------------------------------------|--------------------------------------|
|-------------------------------------|-------------------13--13-13-13-13-13-|
|--7--7--7--7--7--7--7--7--7--7--9--9-|-10-10-10-10-10-10--------------------|
|-------------------------------------|--------------------------------------|
|-------------------------------------|--------------------------------------|
|-------------------------------------|--------------------------------------|
|
|  PM---------------------------------------------------------------------|
|  E  E  E  E  E  E  E  E  E  E  E  E    E  E  E  E  E  E  E   E  E  E  E  E
|-------------------------------------|--------------------------------------|
|-------------------------------------|--------------------------------------|
|-------------------------------------|--------------------------------------|
|-------------------------------------|--------------------------------------|
|--8--8--8--8--8--8--8--8--8--8--8--8-|--8--8--8--8--8--8--8---8--8--8--8--8-|
|--8--8--8--8--8--8--8--8--8--8--8--8-|--8--8--8--8--8--8--8---8--8--8--8--8-|


  Eb5
   TP                  TP
   W.                  W.
|-------------------|-------------------------|
|-------------------|-------------------------|
|-14----------------|-14----------------------|
|-------------------|-------------------------|
|-------------------|-------------------------|
|-------------------|-------------------------|
|
|           ~~~                    ~~~
|  H.       H.         H.          H.
|-------------------|-------------------------|
|-------------------|-------------------------|
|-14-------14-------|-14----------14----------|
|-------------------|-------------------------|
|-------------------|-------------------------|
|-------------------|-------------------------|
|
|  W.                  E  Q  Q  E  E  Q  Q  E
|-------------------|-------------------------|
|-------------------|-------------------------|
|--8----------------|--8--8--8--8--8--8--8--8-|
|--8----------------|--8--8--8--8--8--8--8--8-|
|--6----------------|--6--6--6--6--6--6--6--6-|
|-------------------|-------------------------|


  D5
  W                          H.                 H.
|-------------------------|--------------------16-----------------|
|-------------------------|--------------------17-----------------|
|-------------------------|---------------------------------------|
|-------------------------|---------------------------------------|
|-------------------------|---------------------------------------|
|-------------------------|---------------------------------------|
|
| PM-----------------------------------------------------------|
| E E E E E E E E E E E E    E   E  E  E  E  E  E   E  E  E  E  E
|-------------------------|---------------------------------------|
|-------------------------|--------------------13--13-13-13-13-13-|
|-7-7-7-7-7-7-7-7-7-7-9-9-|-10--10-10-10-10-10--------------------|
|-------------------------|---------------------------------------|
|-------------------------|---------------------------------------|
|-------------------------|---------------------------------------|
|
| PM-----------------------------------------------------------|
| E E E E E E E E E E E E    E   E  E  E  E  E  E   E  E  E  E  E
|-------------------------|---------------------------------------|
|-------------------------|---------------------------------------|
|-------------------------|---------------------------------------|
|-7-7-7-7-7-7-7-7-7-7-7-7-|--7---7--7--7--7--7--7---7--7--7--7--7-|
|-5-5-5-5-5-5-5-5-5-5-5-5-|--5---5--5--5--5--5--5---5--5--5--5--5-|
|-------------------------|---------------------------------------|


  F5               E5         Db5
   TP              TP          TP
   W.              H.          H.
|----------------|----------------------|
|-10-------------|-9--------------------|
|----------------|------------10--------|
|----------------|----------------------|
|----------------|----------------------|
|----------------|----------------------|
|
|  TP              TP          TP
|  W.              H.          H.
|----------------|----------------------|
|-10-------------|-9--------------------|
|----------------|------------10--------|
|----------------|----------------------|
|----------------|----------------------|
|----------------|----------------------|
|
|  W.              E  Q  Q  E  Q   H
|----------------|----------------------|
|----------------|----------------------|
|-10-------------|-9--9--9--9--6\-------|
|-10-------------|-x--x--x--x--x\-------|
|--8-------------|-7--7--7--7--4\-------|
|----------------|----------------------|


  Bb5
                                                 ~~~
   H.                    H              Q        H             Q     H.
|---------------------------------------------|-----------------------------------------|
|-17b18-----------------15-------------17-----|-18------------17----18------------------|
|---------------------------------------------|-----------------------------------------|
|---------------------------------------------|-----------------------------------------|
|---------------------------------------------|-----------------------------------------|
|---------------------------------------------|-----------------------------------------|
|
|  TP                           TP      TP       TP                  TP
|  W                           +Q       Q        H.                  H.
|---------------------------------------------|-----------------------------------------|
|---------------------------------------------|---------------------13------------------|
|--7---------------------------(7)------9-----|-10--------------------------------------|
|---------------------------------------------|-----------------------------------------|
|---------------------------------------------|-----------------------------------------|
|---------------------------------------------|-----------------------------------------|
|
|  E    +E  +E  E +E  E  E +E   E  +E   E +E     E  +E  +E  E +E  E  E  +E  E +E  E +E
|---------------------------------------------|-----------------------------------------|
|---------------------------------------------|-----------------------------------------|
|---------------------------------------------|-----------------------------------------|
|--8----(8)-(8)-8-(8)-8--8-(8)--8--(8)--8-(8)-|--8--(8)-(8)-8-(8)-8--8--(8)-8-(8)-8-(8)-|
|--8----(8)-(8)-8-(8)-8--8-(8)--8--(8)--8-(8)-|--8--(8)-(8)-8-(8)-8--8--(8)-8-(8)-8-(8)-|
|--8----(8)-(8)-8-(8)-8--8-(8)--8--(8)--8-(8)-|--8--(8)-(8)-8-(8)-8--8--(8)-8-(8)-8-(8)-|


  Eb5
   TP                  TP         TP
   H.                  H.         W.
|-20------------------17-------|-17----------------------|
|------------------------------|-------------------------|
|------------------------------|-------------------------|
|------------------------------|-------------------------|
|------------------------------|-------------------------|
|------------------------------|-------------------------|
|
|  TP                             TP
|  W.                             W.
|------------------------------|-------------------------|
|-10---------------------------|-10----------------------|
|------------------------------|-------------------------|
|------------------------
            
Submit corrections


        Broadcast Quality lessons Hard to play? Try these video lessons and learn fast Broadcast Quality lessons
        
↑ Back to top | Tablatures and chords for acoustic guitar and electric guitar, ukulele, drums are parodies/interpretations of the original songs. You may use it for private study, scholarship, research or language learning purposes only