» » »

The Receiving End Of Sirens - Broadcast Quality Tabs

Artists:  A B C D E F G H I J K L M N O P Q R S T U V W X Y Z # 

Broadcast Quality Tabs

(ver. 2) Click to play this song!
The Receiving End Of Sirens
 Rating:
4/5 (6 votes)

 Broadcast Quality lessons Tabs too difficult? Try these video lessons and learn fast
 
                Intro (piano arranged for guitar)
D|--------------------------------------------------------------------|
A|--10---6---10---6---8---6---8---6---5---6---5---6---5-------5-------|
F|-----7---7----7---7---7---7---7---7---7---7---7---7---7---7---7---7-|
C|--------------------------------------------------------7-------7---|
G|--------------------------------------------------------------------|
C|--------------------------------------------------------------------|

D|--------------------------------------------------------------------|
A|--10---6---10---6---8---6---8---6---5---6---5---6---5-------5-------|
F|-----7---7----7---7---7---7---7---7---7---7---7---7---6---6---6---6-|
C|--------------------------------------------------------7-------7---|
G|--------------------------------------------------------------------|
C|--------------------------------------------------------------------|

Guitar comes in after twice thru
D|---------------------------|
A|---------------------------|
F|---------------------------|
C|--0~----------------0~-----|
G|--0~----------------0~-----|
C|--0~----------------0~-----|

Fill
D|-------------------|
A|-------------------|
F|-------------------|
C|--7-------5-7---5--|
G|----5-7-8-----8----|
C|-------------------|

D|--------------------------------------------------------|
A|--------------------------------------------------------|
F|---------------------------------------------9999-6666--|
C|--0--0--0-0-0--0--0--0-0-0--0--0-0--99999999-xxxx-xxxx--|
G|--0--0--0-0-0--0--0--0-0-0--0--0-0--99999999-7777-4444--|
C|--0--0--0-0-0--0--0--0-0-0--0--0-0--99999999------------|

D|-----------------------------------------------------------------|
A|-----------------------------------------------------------------|
F|-----------------------------------------------------------------|
C|--0--0--0-0-0--0--0--0-0-0--0--0-0---------------------------0~--|
G|--0--0--0-0-0--0--0--0-0-0--0--0-0--888------888777----------0~--|
C|--0--0--0-0-0--0--0--0-0-0--0--0-0-----888777------777555333-0~--|

Verse 1, 2x (hit each chord once w/short delay with a long feedback)
D|----------------------------|
A|--6------8------10-------8--|
F|--7------9------10-------9--|
C|--0------7-------8-------7--|
G|----------------------------|
C|----------------------------|

Pre-Chorus 2x (delay off)
D|--5-----5--3------3--8------8--5-----5--|
A|------6--------5----------5--------6----|
F|----7--------5----------5--------7------|
C|----------------------------------------|
G|----------------------------------------|
C|----------------------------------------|

Chorus
D|--------------------------------------------------------|
A|--------------------------------------------------------|
F|---------------------------------------------9999-6666--|
C|--0--0--0-0-0--0--0--0-0-0--0--0-0--88888888-xxxx-xxxx--|
G|--0--0--0-0-0--0--0--0-0-0--0--0-0--88888888-7777-4444--|
C|--0--0--0-0-0--0--0--0-0-0--0--0-0--88888888------------|

(this part im having a hard time figuring it out but i think he just palm mutes these 
im prly wrong)
D|-------------------------------------------------------|
A|-------------------------------------------------------|
F|------------------------------------------------66666--|
C|--------------------------------88888888-777777-xxxxx--|
G|--000000-222222-333333-555555---88888888-777777-44444--|
C|--000000-222222-333333-555555---88888888-777777--------|
  PM___________________________|

D|---------------------------------------------------------------------|
A|---------------------------------------------------------------------|
F|---------------------------------------------------------------------|
C|--0--0--0-0-0--0--0--0-0-0--0--0-0---------------------------5-3-0~--|
G|--0--0--0-0-0--0--0--0-0-0--0--0-0--8888--------88887777-----5-3-0~--|
C|--0--0--0-0-0--0--0--0-0-0--0--0-0------88887777--------7777-5-3-0~--|

Bridge (10's and 17's not 1's, 0's, and 7's)
D|----------------------------------------|-------|
A|-----------------------------------10---|--9-6--|
F|--77777777779910101010101017171717--x---|--x-x--|
C|--00000000000000000000000000000000--7---|--6-3--|
G|----------------------------------------|-------|
C|----------------------------------------|-------|

D|--10101010101213131313131320202020-17~--|--16-13--|
A|--xxxxxxxxxxxxxxxxxxxxxxxxxxxxxxxx--x---|---x--x--|
F|--77777777779910101010101017171717-14~--|--13-10--|
C|----------------------------------------|---------|
G|----------------------------------------|---------|
C|----------------------------------------|---------|

Outro
D|------------------------------------|-----------------|
A|------------------------------------|-----------------|
F|------------------------------------|-----------------|
C|--7---0-0-0--0--0--7-7--0-0-0--0-0--|-----------------|
G|--5---0-0-0--0--0--5-5--0-0-0--0-0--|------8-------7--|
C|--0---0-0-0--0--0--0-0--0-0-0--0-0--|--7h8---8-7h8----|

Ending
D|---------------------------------|
A|---------------------------------|
F|---------------------------------|
C|---------------------------------|
G|--8h101010-10p888-8\555-5\333-0--|
C|--8h101010-10p888-8\555-5\333-0--|
            
Submit corrections


        Broadcast Quality lessons Hard to play? Try these video lessons and learn fast Broadcast Quality lessons
        
↑ Back to top | Tablatures and chords for acoustic guitar and electric guitar, ukulele, drums are parodies/interpretations of the original songs. You may use it for private study, scholarship, research or language learning purposes only