Home » T » The Presets »

The Presets - Are You The One? Tabs

Artists:  A B C D E F G H I J K L M N O P Q R S T U V W X Y Z # 

Are You The One? Tabs

(ver. 2) Click to play this song!
The Presets
 Rating:
4/5 (4 votes)
                Are You The One by The Presets.

I know they are an electronic band but this sounds good
on guitar too with loads of distortion. I looked at the other 
version on here but it didn't sound right to me.

Standard Tuning

Intro  

e----------------|
b----------------|
g----------------|
d--9-10---9-10-8-|  (x4)
a--9-10---9-10-8-|
E--7--8---7--8-6-| 

Verse


e----------------|        e----------------|
b----------------|        b----------------|
g----------------|        g--9-10---9-10-8-|  
d--9-10---9-10-8-|  (x2)  d--9-10---9-10-8-| (x2)
a--9-10---9-10-8-|        a--7--8---7--8-6-|  
E--7--8---7--8-6-|        E----------------|

"I don't know why..."     "And into the fire..."


Prechorus

e--------8-------11|        
b--------8-------11|        
g-----------8--8---|         
d--10-10----8--8---|  (x2)  
a--10-10----6--6---|        
E---8--8-----------|       

"What I wanna know..."


Chorus
  
e----------------|
b----------------|
g--9-------------|
d--9-10---9-10-8-|  (x4) Note the subtle difference in the first chord
a--7-10---9-10-8-|       when compared to the Intro.
E-----8---7--8-6-|

"Are - are you the one.."


These are the building blocks for the song.  Listen to the track to get the pattern correct.

PS For two blokes with a drum kit and keyboard, they are awesome live!

Enjoy

Spence
            
Submit corrections

↑ Back to top | Tablatures and chords for acoustic guitar and electric guitar, ukulele, drums are parodies/interpretations of the original songs. You may use it for private study, scholarship, research or language learning purposes only