» » »

The Neighbourhood - Sweater Weather Bass

Artists:  A B C D E F G H I J K L M N O P Q R S T U V W X Y Z # 

Sweater Weather Bass

(ver. 2) Click to play this song!
The Neighbourhood
 Rating:
4/5 (4 votes)

 Sweater Weather lessons Tabs too difficult? Try these video lessons and learn fast
 
                Here is my version, for standard tuning I hope you like it, I personally hate      it 
when I have to change the tuning between songs.

 Verse
G|--------|--------|--------|--------|
D|--------|--------|--------|--------|
A|--------|--------|--------|33331111|
E|0000----|--------|3333----|--------| x4

 Chorus
G|--------|--------|--------|--------|
D|--------|--------|--------|--------|
A|------1-|3-------|------1-|3-1---1-|
E|0-------|------1-|3-------|----3---| x2

G|--------|--------|--------|--------|
D|--------|--------|--------|--------|
A|--------|3-------|--------|1-------|
E|1-------|--------|3-------|--------| x2

Verse 2
G|--------|--------|--------|--------|
D|--------|--------|--------|--------|
A|--------|--------|--------|33331111|
E|0000----|--------|3333----|--------| x3

Chorus 2
G|--------|--------|--------|--------|
D|--------|--------|--------|--------|
A|------1-|3-------|------1-|3-1---1-|
E|1-------|------1-|3-------|----3---| x2

G|--------|--------|--------|--------|
D|--------|--------|--------|--------|
A|--------|3-------|--------|1-------|
E|1-------|--------|3-------|--------| x4

G|--------|--------|--------|--------|
D|--------|--------|--------|--------|
A|--------|--------|--------|--------|
E|0-------|--------|--------|--------|

Break
G|--------|--------|--------|--------|
D|--------|--------|--------|--------|
A|---33333|---11111|--------|--------|
E|--------|--------|3-----3-|3-------| x3

G|--------|--------|--------|--------|
D|--------|--------|--------|--------|
A|---33333|---11111|--------|----1-3-|
E|--------|--------|3-----3-|3-------| x1

G|--------|--------|--------|--------|
D|--------|--------|--------|--------|
A|------1-|3-------|------1-|3-1---1-|
E|1-------|------1-|3-------|----3---| x4

Outro
G|--------|--------|--------|--------|
D|--------|--------|--------|--------|
A|--------|3-------|1-------|--------|
E|1-------|--------|--------|3-------|
            
Submit corrections


        Sweater Weather lessons Hard to play? Try these video lessons and learn fast Sweater Weather lessons
        
↑ Back to top | Tablatures and chords for acoustic guitar and electric guitar, ukulele, drums are parodies/interpretations of the original songs. You may use it for private study, scholarship, research or language learning purposes only