» » »

The Neighbourhood - Sweater Weather Bass

Artists:  A B C D E F G H I J K L M N O P Q R S T U V W X Y Z # 

Sweater Weather Bass

(ver. 3) Click to play this song!
The Neighbourhood
 Rating:
4.3/5 (19 votes)

 Sweater Weather lessons Tabs too difficult? Try these video lessons and learn fast
 
                [Verse]
Gb|-------------------------------------|
Db|-------------------------------------|
Ab|-------------------------------------|
Eb|-0-0-0-0----4-4-4-4----9-9-9~-7-7-7\-|

PRE-CHORUS and the PART AFTER THE BRIDGE
Gb|------------------------------|
Db|------------------------------|
Ab|------------------------------|
Eb|-0~---7-9~---2-4~---6-7-4-2-4-|

[Chorus]
Gb|-------------------------------------------|
Db|-------------------------------------------|
Ab|-------------------------------------------|
Eb|-0~----9~----4~----7~-0~----9~----4~----7~-|

[Chorus] (before the bridge)
Gb|-------------------------------------------------|
Db|-------------------------------------------------|
Ab|-------------------------------------------------|
Eb|-0~----9~----4~----7~-0~----9~----4~----7~----2~-|

[Bridge]
Gb|---------------------------------|
Db|---------------------------------|
Ab|-4~---2~---2------4~---2~---2----|
Eb|-------------2~---------------2~-|

(last time)
Gb|----------------------------------------------|
Db|----------------------------------------------|
Ab|-4~---2~---2------4~---2~---2-----------------|
Eb|-------------2~---------------2~---4-2~---4-7-|

[Outro]
Gb|----------------------|
Db|----------------------|
Ab|----------------------|
Eb|-0~----9~----4~----7~-|            
Submit corrections


        Sweater Weather lessons Hard to play? Try these video lessons and learn fast Sweater Weather lessons
        
↑ Back to top | Tablatures and chords for acoustic guitar and electric guitar, ukulele, drums are parodies/interpretations of the original songs. You may use it for private study, scholarship, research or language learning purposes only