» » »

The Neighbourhood - Sweater Weather Bass

Artists:  A B C D E F G H I J K L M N O P Q R S T U V W X Y Z # 

Sweater Weather Bass

(ver. 1) Click to play this song!
The Neighbourhood
 Rating:
4/5 (4 votes)

 Sweater Weather lessons Tabs too difficult? Try these video lessons and learn fast
 
                This is how I play it. Feel free to give your opinion and point out any mistakes.



On a 4-string:

g|--------|--------|--------|--------|
d|--------|--------|--------|--------|
a|--------|--------|--------|33331111|
d|1111----|--------|5555----|--------| x4

g|--------|--------|--------|--------|
d|--------|--------|--------|--------|
a|------1-|3-------|------1-|3-1---1-|
d|1-------|------3-|5-------|----5---| x2

g|--------|--------|--------|--------|
d|--------|--------|--------|--------|
a|--------|3-------|--------|1-------|
d|1-------|--------|5-------|--------| x2

g|--------|--------|--------|--------|
d|--------|--------|--------|--------|
a|--------|--------|--------|33331111|
d|1111----|--------|5555----|--------| x3

g|--------|--------|--------|--------|
d|--------|--------|--------|--------|
a|------1-|3-------|------1-|3-1---1-|
d|1-------|------3-|5-------|----5---| x2

g|--------|--------|--------|--------|
d|--------|--------|--------|--------|
a|--------|3-------|--------|1-------|
d|1-------|--------|5-------|--------| x4

g|--------|--------|--------|--------|
d|--------|--------|--------|--------|
a|--------|--------|--------|--------|
d|1-------|--------|--------|--------|

Break

g|--------|--------|--------|--------|
d|--------|--------|--------|--------|
a|---33333|---11111|--------|--------|
d|--------|--------|3-----3-|3-------| x3

g|--------|--------|--------|--------|
d|--------|--------|--------|--------|
a|---33333|---11111|--------|----1-3-|
d|--------|--------|3-----3-|3-------| x1

g|--------|--------|--------|--------|
d|--------|--------|--------|--------|
a|------1-|3-------|------1-|3-1---1-|
d|1-------|------3-|5-------|----5---| x4

g|--------|--------|--------|--------|
d|--------|--------|--------|--------|
a|--------|3-------|1-------|--------|
d|1-------|--------|--------|3-------|

Or on a 5-string:

g|--------|--------|--------|--------|
d|--------|--------|--------|--------|
a|--------|--------|--------|33331111|
e|--------|--------|3333----|--------|
b|4444----|--------|--------|--------|  x4

g|--------|--------|--------|--------|
d|--------|--------|--------|--------|
a|------1-|3-------|------1-|3-1-----|
e|--------|------1-|3-------|----3-1-|
b|4-------|--------|--------|--------| x2

g|--------|--------|--------|--------|
d|--------|--------|--------|--------|
a|--------|3-------|--------|1-------|
e|--------|--------|3-------|--------|
b|4-------|--------|--------|--------| x2

g|--------|--------|--------|--------|
d|--------|--------|--------|--------|
a|--------|--------|--------|33331111|
e|--------|--------|3333----|--------|
b|4444----|--------|--------|--------|  x3

g|--------|--------|--------|--------|
d|--------|--------|--------|--------|
a|------1-|3-------|------1-|3-1-----|
e|--------|------1-|3-------|----3-1-|
b|4-------|--------|--------|--------| x2

g|--------|--------|--------|--------|
d|--------|--------|--------|--------|
a|--------|3-------|--------|1-------|
e|--------|--------|3-------|--------|
b|4-------|--------|--------|--------| x4

g|--------|--------|--------|--------|
d|--------|--------|--------|--------|
a|--------|--------|--------|--------|
e|--------|--------|--------|--------|
b|4-------|--------|--------|--------|

Break

g|--------|--------|--------|--------|
d|--------|--------|--------|--------|
a|---33333|---11111|--------|--------|
e|--------|--------|1-----1-|1-------|
b|--------|--------|--------|--------| x3

g|--------|--------|--------|--------|
d|--------|--------|--------|--------|
a|---33333|---11111|--------|----1-3-|
e|--------|--------|1-----1-|1-------|
b|--------|--------|--------|--------| x1

g|--------|--------|--------|--------|
d|--------|--------|--------|--------|
a|------1-|3-------|------1-|3-1-----|
e|--------|------1-|3-------|----3-1-|
b|4-------|--------|--------|--------| x4

g|--------|--------|--------|--------|
d|--------|--------|--------|--------|
a|--------|3-------|1-------|--------|
e|--------|--------|--------|1-------|
b|4-------|--------|--------|--------|
            
Submit corrections


        Sweater Weather lessons Hard to play? Try these video lessons and learn fast Sweater Weather lessons
        
↑ Back to top | Tablatures and chords for acoustic guitar and electric guitar, ukulele, drums are parodies/interpretations of the original songs. You may use it for private study, scholarship, research or language learning purposes only