» » »

The Movielife - Jamaica Next Tabs

Artists:  A B C D E F G H I J K L M N O P Q R S T U V W X Y Z # 

Jamaica Next Tabs

(ver. 2) Click to play this song!
The Movielife
 Rating:
4/5 (4 votes)

 Jamaica Next lessons Tabs too difficult? Try these video lessons and learn fast
 
                Tunning: Half A Step Down 

x=Muted(Don't Press In Bar Chord) 
*=palm mute 
/=slide 
^=bend string 
h=hammer on 
p=pull off 
~=let it ring 
\=pickslide 

Intro:
E|-------------------------------------------|
B|-------------------------------------------|
G|-7-7~--------------------------7~----------|
D|-7-7~------4-4~------5-5~------7~----------|
A|-5-5~------4-4~------5-5~------5~----------|
E|-----------2-2~------3-3~------------------|

Verse:
E|-------------------------------------------|
B|-------------------------------------------|
G|-7777--------777------------7777-----------|
D|-7777--5555--777--444--555--7777-----------|
A|-5555--5555--555--444--555--5555-----------|
E|-------3333-------222--333-----------------|

E|-------------------------------------------|
B|-------------------------------------------|
G|-7777--------777------------7777-----------|
D|-7777--5555--777--444--555--7777-----------|
A|-5555--5555--555--444--555--5555-----------|
E|-------3333-------222--333-----------------|

E|-------------------------------------------|
B|-------------------------------------------|
G|-------------------------------------------|
D|-77777777--5555555--7777-------------------|
A|-77777777--5555555--7777-------------------|
E|-55555555--3333333--5555-------------------|

Pre-Chorus:
E|-------------------------------------------|
B|-------------------------------------------|
G|-7777--------44444444----------------------|
D|-7777--4444--44444444--5555--77777777------|
A|-5555--4444--22222222--5555--77777777------|
E|-------2222------------3333--55555555------|

Chorus:
E|-------------------------------------------|
B|-------------------------------------------|
G|-7-77--------------------4444--------------|
D|-7-77--4-44--5-55--7-77--4444-7777---------|
A|-5-55--4-44--5-55--7-77--2222-7777---------|
E|-------2-22--3-33--5-55-------5555---------|

E|-------------------------------------------|
B|-------------------------------------------|
G|-7-77--------------------4444--------------|
D|-7-77--4-44--5-55--7-77--4444-7777--55555--|
A|-5-55--4-44--5-55--7-77--2222-7777--55555--|
E|-------2-22--3-33--5-55-------5555--33333--|

Bridge:
E|----------------------------------------------|
B|-12-----10------12-----10------12-----10------|
G|---(7-9)---9-11---(7-9)---9-11---(7-9)---9-11-|
D|----------------------------------------------|
A|----------------------------------------------|
E|----------------------------------------------|


Song Structure

Intro     
Verse    
Pre Chorus
Chorus
Verse
Pre Chorus
Chorus
Bridge
Chorus
            
Submit corrections


        Jamaica Next lessons Hard to play? Try these video lessons and learn fast Jamaica Next lessons
        
↑ Back to top | Tablatures and chords for acoustic guitar and electric guitar, ukulele, drums are parodies/interpretations of the original songs. You may use it for private study, scholarship, research or language learning purposes only