» » »

The Movielife - Jamaica Next Tabs

Artists:  A B C D E F G H I J K L M N O P Q R S T U V W X Y Z # 

Jamaica Next Tabs

(ver. 1) Click to play this song!
The Movielife
 Rating:
4/5 (4 votes)

 Jamaica Next lessons Tabs too difficult? Try these video lessons and learn fast
 
                The Movielife
Forty Hour Train Back To Penn
************************************************************

INTRO
E|-------------------------------------------|
B|-------------------------------------------|
G|-6-6~--------------------------6~----------|
D|-6-6~------3-3~------4-4~------6~----------|
A|-4-4~------3-3~------4-4~------4~----------|
E|-----------1-1~------2-2~------------------|

VERSE
E|-------------------------------------------|
B|-------------------------------------------|
G|-6666--------666------------6666-----------|
D|-6666--4444--666--333--444--6666-----------|
A|-4444--4444--444--333--444--4444-----------|
E|-------2222-------111--222-----------------|

E|-------------------------------------------|
B|-------------------------------------------|
G|-6666--------666------------6666-----------|
D|-6666--4444--666--333--444--6666-----------|
A|-4444--4444--444--333--444--4444-----------|
E|-------2222-------111--222-----------------|

E|-------------------------------------------|
B|-------------------------------------------|
G|-------------------------------------------|
D|-66666666--4444444--6666-------------------|
A|-66666666--4444444--6666-------------------|
E|-44444444--2222222--4444-------------------|

PRECHORUS
E|-------------------------------------------|
B|-------------------------------------------|
G|-6666--------33333333----------------------|
D|-6666--3333--33333333--4444--66666666------|
A|-4444--3333--11111111--4444--66666666------|
E|-------1111------------2222--44444444------|

CHORUS
E|-------------------------------------------|
B|-------------------------------------------|
G|-6-66--------------------3333--------------|
D|-6-66--3-33--4-44--6-66--3333-6666---------|
A|-4-44--3-33--4-44--6-66--1111-6666---------|
E|-------1-11--2-22--4-44-------4444---------|

E|-------------------------------------------|
B|-------------------------------------------|
G|-6-66-------------------3333---------------|
D|-6-66--3-33--4-44--6-66-3333-6666-44444444-|
A|-4-44--3-33--4-44--6-66-1111-6666-44444444-|
E|-------1-11--2-22--4-44------4444-22222222-|

BRIDGE (repeat as necessary)
E|-------------------------------------------|
B|-11-----9------11-----9------11-----9------|
G|---(6-8)--8-10---(6-8)--8-10---(6-8)--8-10-|
D|-------------------------------------------|
A|-------------------------------------------|
E|-------------------------------------------|
It's hard to tell whether it's 6-8 or 8-10 
but alternating between the two sounds right.

SONG STRUCTURE
Intro     
Verse    
Pre Chorus
Chorus
Verse
Pre Chorus
Chorus
Bridge
Chorus
End On F#

************************************************************
            
Submit corrections


        Jamaica Next lessons Hard to play? Try these video lessons and learn fast Jamaica Next lessons
        
↑ Back to top | Tablatures and chords for acoustic guitar and electric guitar, ukulele, drums are parodies/interpretations of the original songs. You may use it for private study, scholarship, research or language learning purposes only