» » »

The Movielife - Face Or Kneecaps Tabs

Artists:  A B C D E F G H I J K L M N O P Q R S T U V W X Y Z # 

Face Or Kneecaps Tabs

(ver. 2) Click to play this song!
The Movielife
 Rating:
4/5 (4 votes)

 Face Or Kneecaps lessons Tabs too difficult? Try these video lessons and learn fast
 
                D-Tuning

Intro/Chorus
E|----------------------------------------------------------------------------------|
B|----------------------------------------------------------------------------------|
G|5---3----5-5-5-5/3-----------------------------5-5-5-5/3-----------12-13-12-12-12-|
D|3-1-3-3--5-5-5-5/3-6-6-6-6--3-3-3-3/6--1-1-1-1-5-5-5-5/3-6-6--1-1--x--x--x--x--x--|
A|3-1-1-3--3-3-3-3/1-6-6-6-6--3-3-3-3/6--1-1-1-1-3-3-3-3/1-6-6--1-1--10-11-10-10-10-|
D|--1---3------------6-6-6-6--3-3-3-3/6--1-1-1-1-----------6-6--1-1-----------------|

Verse (Up strokes on all notes shown)
E|-3-3-3-3--33-33------1-1-1-1--11-11--3-3-3-3--33-33--|
B|-4-4-4-4--44-44------1-1-1-1--11-11--4-4-4-4--44-44--|
G|-5-5-5-5--55-55-(x2)-3-3-3-3--33-33--5-5-5-5--55-55--|
D|-5-5-5-5--55-55------3-3-3-3--33-33--5-5-5-5--55-55--|
A|-3-3-3-3--33-33------1-1-1-1--11-11--3-3-3-3--33-33--|
D|-----------------------------------------------------|

Fill
E|-----------|
B|-4p3--4p3--|
G|-----------|
D|-----------|
A|-----------|
D|-----------|

Pre-Chorus
E|---------------------------------------------------|
B|---------------------------------------------------|
G|--------------------------3333333------------------|
D|-3333333-6666666-11111111-3333333-3333333-6666666--|
A|-3333333-6666666-11111111-1111111-3333333-6666666--|
D|-3333333-6666666-11111111---------3333333-6666666--|

During the Pre-Chorus the 2nd guitar plays this a whole bunch of times.
E|-----------|
B|-4p3--4p3--|
G|-----------|
D|-----------|
A|-----------|
D|-----------|

Last thing before Last Chrous
E|-----3333333-----3333333-----1111111-----3333333--|
B|-----4444444-----4444444-----1111111-----4444444--|
G|-----5555555-----5555555-----3333333-----5555555--|
D|-1-3-5555555-1-3-5555555-1-3-3333333-1-3-5555555--|
A|-1-3-3333333-1-3-3333333-1-3-1111111-1-3-3333333--|
D|-1-3---------1-3---------1-3---------1-3----------|

Final Chorus
E|---------------|
B|---------------|
G|-5----3--------|
D|-5----3-----1--|
A|-3----1-----1--|
D|------------1--|
Thanks for looking and send corrections if needed.
            
Submit corrections


        Face Or Kneecaps lessons Hard to play? Try these video lessons and learn fast Face Or Kneecaps lessons
        
↑ Back to top | Tablatures and chords for acoustic guitar and electric guitar, ukulele, drums are parodies/interpretations of the original songs. You may use it for private study, scholarship, research or language learning purposes only