» » »

The Movielife - Face Or Kneecaps Tabs

Artists:  A B C D E F G H I J K L M N O P Q R S T U V W X Y Z # 

Face Or Kneecaps Tabs

(ver. 1) Click to play this song!
The Movielife
 Rating:
4/5 (4 votes)

 Face Or Kneecaps lessons Tabs too difficult? Try these video lessons and learn fast
 
                Tunning: Half A Step Down

*=palm mute 
/=slide 
^=bend string 
h=hammer on 
p=pull off 
~=let it ring 
/=pickslide

Intro:
eb|-----------| 
Bb|-----------| 
Gb|-----------| 
Db|-2-4-6--2--| 
Ab|-2-4-6--2--| 
Eb|-0-2-4--0--|

Intro 2:
eb|-----------------------------------------------------------------------------| 
Bb|-----------------------------------------------------------------------------| 
Gb|-6-6-6-6-4-2-2-2-2---------2----------------6-6-6-6-4-2-2-2-2----------------| 
Db|-6-6-6-6-4-2-2-2-2-4-4-4-4-2-2-2-2-2-2-2-2--6-6-6-6-4-2-2-2-2--2-2-2-2-2-2-2-| 
Ab|-4-4-4-4-2-0-0-0-0-4-4-4-4-0-2-2-2-2-2-2-2--4-4-4-4-2-0-0-0-0--2-2-2-2-2-2-2-| 
Eb|-------------------2-2-2-2---0-0-0-0-0-0-0---------------------0-0-0-0-0-0-0-|

Fill In:
eb|--------------| 
Bb|--------------| 
Gb|-13-14-13~----| 
Db|--x--x--x~----| 
Ab|-11-12-11~----| 
Eb|--------------|

Verse
eb|-----------------------------------------------------------------------| 
Bb|-----------------------------------------------------------------------| 
Gb|-666-6-6-6-6-6-6--666-6-6-6-6-6-6--444-4-4-4-4-4-4--666-6-6-6-6-6-6----| 
Db|-xxx-x-x-x-x-x-x--xxx-x-x-x-x-x-x--xxx-x-x-x-x-x-x--xxx-x-x-x-x-x-x----| 
Ab|-444-4-4-4-4-4-4--444-4-4-4-4-4-4--222-2-2-2-2-2-2--444-4-4-4-4-4-4----| 
Eb|------------------555-5-5-5-5-5-5--------------------------------------|

Pre Chorus:
eb|--------------------------------------------------------| 
Bb|--------------------------------------------------------| 
Gb|-----------------2-2-2-2-2-2---------------4-4-4-4-4-4--| 
Db|--4-4-4-4-4-4-4--2-2-2-2-2-2--2-2-2-2-2-2--4-4-4-4-4-4--| 
Ab|--4-4-4-4-4-4-4--0-0-0-0-0-0--2-2-2-2-2-2--2-2-2-2-2-2--| 
Eb|--2-2-2-2-2-2-2---------------0-0-0-0-0-0---------------|

Pre Chorus 2:
eb|---------4-------| 
Bb|-5-5-5-5---5-7-5-| 6x
Gb|-----------------| 
Db|-----------------| 
Ab|-----------------| 
Eb|-----------------|

Pre Chorus 3:
eb|---------4-------| 
Bb|-4-4-4-4---5-7-5-| 2x (Then Back To 2)
Gb|-----------------| 
Db|-----------------| 
Ab|-----------------| 
Eb|-----------------|

Chorus:
eb|-----------| 
Bb|-----------| 
Gb|-----------| 
Db|-2-4-6--2--| 
Ab|-2-4-6--2--| 
Eb|-0-2-4--0--|

Chorus 2:
eb|-----------------------------------------------------------------------------| 
Bb|-----------------------------------------------------------------------------| 
Gb|-6-6-6-6-4-2-2-2-2---------2----------------6-6-6-6-4-2-2-2-2----------------| 
Db|-6-6-6-6-4-2-2-2-2-4-4-4-4-2-2-2-2-2-2-2-2--6-6-6-6-4-2-2-2-2--2-2-2-2-2-2-2-| 
Ab|-4-4-4-4-2-0-0-0-0-4-4-4-4-0-2-2-2-2-2-2-2--4-4-4-4-2-0-0-0-0--2-2-2-2-2-2-2-| 
Eb|-------------------2-2-2-2---0-0-0-0-0-0-0---------------------0-0-0-0-0-0-0-|

Bridge 1:
eb|-0~-----0-----0-----0----| 
Bb|-0~-----0-----0-----0----| 
Gb|-6~----4-----------------| 
Db|-6~---4------7-----6-----| 
Ab|-4~--2------7-----4------|
Eb|-----------5-------------|

Bridge 2:
eb|-----------------------------------------------------------------| 
Bb|-----------------------------------------------------------------| 
Gb|-666-6-6-6-6--666-6-6-6-6-6-6--444-4-4-4-4-4-4--666-6-6-6-6-6-6--| 
Db|-xxx-x-x-x-x--xxx-x-x-x-x-x-x--xxx-x-x-x-x-x-x--xxx-x-x-x-x-x-x--| 
Ab|-444-4-4-4-4--444-4-4-4-4-4-4--222-2-2-2-2-2-2--444-4-4-4-4-4-4--| 
Eb|--------------555-5-5-5-5-5-5------------------------------------|

eb|----------------------------| 
Bb|----------------------------| 
Gb|-----------222222-----------| 
Db|-44444444--222222--2-4-6-2--| 
Ab|-44444444--000000--2-4-6-2--| 
Eb|-22222222----------0-2-4-0--|

Thanks
            
Submit corrections


        Face Or Kneecaps lessons Hard to play? Try these video lessons and learn fast Face Or Kneecaps lessons
        
↑ Back to top | Tablatures and chords for acoustic guitar and electric guitar, ukulele, drums are parodies/interpretations of the original songs. You may use it for private study, scholarship, research or language learning purposes only