» » »

The Kills - Last Day Of Magic Tabs

Artists:  A B C D E F G H I J K L M N O P Q R S T U V W X Y Z # 

Last Day Of Magic Tabs

(ver. 2) Click to play this song!
The Kills
 Rating:
4/5 (4 votes)

 Last Day Of Magic lessons Tabs too difficult? Try these video lessons and learn fast
 
                -------------------------------------------------------------------------------
                             LAST DAY OF MAGIC - The Kills
-------------------------------------------------------------------------------

Tuning: Drop B (B,F#,B,E,G#,C#)

OK, I got a little bit of stick for tabbing this out as I heard it on the album (with
guitars) and not the live way (one guitar), so I'm going to have a go at superimposing the
parts over each other.  If the notes are wrong, then tell people the right ones.  If it 
but using a method that you've not seen before or use yourself, please either post
version, or simply realise that you don't really need the tab at all, pick up your 
and just bloody play it however.

Again, the rhythms aren't too religious, but I still hold faith in the common sense of
reader.

Sorry Rodya.

Intro

|-5--5-5-5-5-5-5--5---5--5-5------   ---10------10----10------10------   -|
|-5b6--6-6-6-6-6-r5---5--5-5------   ---11------11----10------10------   -|
|--------------------------------- X ---10------10----10------10------ X -|
|--------------------------------- 2 --------------------------------- 2 -|
|---------------------------------   ---------------------------------   -|
|-3-3-3-3-3-3-3-3-0-0-0-0-0-0-0-0-   -8-8-8-8-8-8-8-8-0-0-0-0-0-0-0-0-   -|

Verse

|---3---3----3---3----3-----3-----3---3----3---3---3|
|---------------------------------------------------|
|---------------------------------------------------|
|---------------------------------------------------|
|---------------------------------------------------|
|-5-5-5-5-5-5-5-5-5-5-5-5-5-5-5-5-5-1-1-1-1-1-1-1-1-|


|-------------------------------------------------|
|-15----15-15----------15-15-15-15-15-15-15-------|
|------------12-----------------------------12----|
|-------------------------------------------------|
|-------------------------------------------------|
|-12-12-12-12-12-12-12-12-12-12-12-12-12-12-12-12-|

   Verse Variations (over same bass notes).
|---------------------------------------------------------|
|------------10-10-/15------15-15-15-15-15-15-15----------|
|-12-12---12------------15-----------------------15-------|
|---------------------------------------------------------|
|---------------------------------------------------------|
|---------------------------------------------------------|

   (and also)
|---------------------------------------------------------|
|-------------------/15-----------------------------------|
|-12-12---12-10-10--------15----12----10------------------|
|---------------------------------------------------------|
|---------------------------------------------------------|
|---------------------------------------------------------|

Chorus
|---------------------------------   ---------------------------------   -|
|---------------------------------   ---------------------------------   -|
|--------------------------------- X --------------------------------- X -|
|--------------------------------- 2 --------------------------------- 2 -|
|---------------------------------   ---------------------------------   -|
|-3-3-3-3-3-3-3-3-0-0-0-0-0-0-0-0-   -8-8-8-8-8-8-8-8-0-0-0-0-0-0-0-0-   -|

|---------------------------------   ---------------------------------   -|
|---------------------------------   ---------------------------------   -|
|--------------------------------- X --------------------------------- X -|
|-0-0-0-0-0-0-0-0-0-0-0-0-0-0-0-0- 2 -0-0-0-0-0-0-0-0-0-0-0-0-0-0-0-0- 2 -|
|-3-3-3-3-3-3-3-3-0-0-0-0-0-0-0-0-   -8-8-8-8-8-8-8-8-0-0-0-0-0-0-0-0-   -|
|-3-3-3-3-3-3-3-3-0-0-0-0-0-0-0-0-   -8-8-8-8-8-8-8-8-0-0-0-0-0-0-0-0-   -|

Break

e|-15-15-15-15-15-15-17-17-15-15-15-15-15-15-17-17-|
B|-15-15-15-15-15-15-17-17-15-15-15-15-15-15-17-17-|
G|-------------------------------------------------|
D|-------------------------------------------------|
A|-17-17-17-17-17-17-17-17-13-13-13-13-13-13-13-13-|
E|-17-17-17-17-17-17-17-17-13-13-13-13-13-13-13-13-|

e|-------------------------------------------------|
B|-15--15------------15-15-15-15-15-15-15----------|
G|--------15------------------------------12-------|
D|-------------------------------------------------|
A|-12-12-12-12-12-12-12-12-12-12-12-12-12-12-12-12-|
E|-12-12-12-12-12-12-12-12-12-12-12-12-12-12-12-12-|

Last bit is toned down and re-structured versions of other bits, building up into the
again.

| /  slide up
| \  slide down
| h  hammer-on
| p  pull-off
| ~  vibrato
| +  harmonic
| x  Mute note
===============================================================================
            
Submit corrections


        Last Day Of Magic lessons Hard to play? Try these video lessons and learn fast Last Day Of Magic lessons
        
↑ Back to top | Tablatures and chords for acoustic guitar and electric guitar, ukulele, drums are parodies/interpretations of the original songs. You may use it for private study, scholarship, research or language learning purposes only