» » »

The Kills - Last Day Of Magic Tabs

Artists:  A B C D E F G H I J K L M N O P Q R S T U V W X Y Z # 

Last Day Of Magic Tabs

(ver. 1) Click to play this song!
The Kills
 Rating:
4.4/5 (7 votes)

 Last Day Of Magic lessons Tabs too difficult? Try these video lessons and learn fast
 
                Last Days of Magic by The Kills
As heard on Midnight Boom

Performace Notes:
* Note The Tunning CFDGBe. A sought of Drop C tunning with the traditionally A string tuned
	to the perfect forth of the Dropped C String. The rest is standard.
* Bass Notes are all fretted with the thumb over the top of the neck.
* It is obviously fingerpicked. The Original Artist actually only uses his thumb and first
	finger and hits the lead notes by doing an upstrum with his finger. This adds
	disonant notes ocassionally.
* Tuning can be done from standard tuning by tuning the A string to the 3rd fret of the D
	string (F but octaves) and then tuning the 5th fret of the E string to the open A 
	string (F).
* In line with the artist don't worry about getting it too exact it isn't classical music.
* Listen to the recording to get the 12\\0 slide line right this is only an approximation
	of what he is doing and should not be played accurately.
* Tempo is about 150bpm
* Each two spaces in tab represents a semiquaver.

* Please rate and comment on this tab.

Intro:

*Still in bent position
E|-3-------3---3-----------3-------|-3-------3---3---3---3---3---3|-3-------3---3-----------3----|
B|-3b4-----4*--4*----------4*------|-3-------3---3---3---3---3---3|-3b4-----4*--4*----------4*---|
G|---------------------------------|------------------------------|------------------------------|
D|---------------------------------|------------------------------|------------------------------|
F|---------------------------------|------------------------------|------------------------------|
C|-3---3---3---3---3---3---3---3---|-0-------0-------0-------0----|-3---3---3---3---3---3---3---3|


E|-3-------3---3---3---3---3---3---|-8-------8---------------8----|-8-------8---8---8---8---8---8|
B|-3-------3---3---3---3---3---3---|-9-------9---------------9----|-8-------8---8---8---8---8---8|
G|---------------------------------|------------------------------|------------------------------|
D|---------------------------------|------------------------------|------------------------------|
F|---------------------------------|------------------------------|------------------------------|
C|-0-------0-------0-------0-------|-8---8---8---8---8---8---8---8|-0-------0-------0-------0----|


E|-8-------8---------------8-------|-8-------8---8---8---8---12\\0---|
B|-9-------9---------------9-------|-8-------8---8---8---8---12\\0---|
G|---------------------------------|-------------------------12\\0---|
D|---------------------------------|-------------------------12\\0---|
F|---------------------------------|-------------------------12\\0---|
C|-8---8---8---8---8---8---8---8---|-0-------0-------0-------12\\0---|

Verse:

E|-1---1-------1---1-------1-------|
B|---------------------------------|
G|---------------------------------|
D|---------------------------------|
F|-0---0---0---0---0---0---0---0---|
C|---------------------------------|

E|-----1-----------1-------1-------|-1-------1-----------1-------1|-----1-------1-------3---3----|
B|---------------------------------|------------------------------|------------------------------|
G|---------------------------------|------------------------------|------------------------------|
D|---------------------------------|------------------------------|------------------------------|
F|-0---0---0---0---0---0---0---0---|-0---0---0---0---0---0---0---0|-0---0---0---0---0---0---0---0|
C|---------------------------------|------------------------------|------------------------------|


E|-1-----------1---1-------1-------|-----1-----------1-------1----|-8---------------8-------8----|
B|---------------------------------|------------------------------|-9---------------9-------8----|
G|---------------------------------|------------------------------|------------------------------|
D|---------------------------------|------------------------------|------------------------------|
F|---------------------------------|------------------------------|------------------------------|
C|-1---1---1---1---1---1---1---1---|-1---1---1---1---1---1---1---1|-8---8---8---8---8---8---8---8|


E|-------------8---8---8---8---8---|-8---8-------------------12\\0|-1---1-------1---1-------1----|
B|---------------------------------|-------------------------12\\0|------------------------------|
G|---------------------------------|---------10b10.5---------12\\0|------------------------------|
D|---------------------------------|-------------------------12\\0|------------------------------|
F|---------------------------------|-------------------------12\\0|-0---0---0---0---0---0---0---0|
C|-8---8---8---8---8---8---8---8---|-8---8---8---8---8---8---12\\0|------------------------------|


E|-----1-----------1-------1-------|-1-------1-----------1-------1|-----1-------1-------3---3----|
B|---------------------------------|------------------------------|------------------------------|
G|---------------------------------|------------------------------|------------------------------|
D|---------------------------------|------------------------------|------------------------------|
F|-0---0---0---0---0---0---0---0---|-0---0---0---0---0---0---0---0|-0---0---0---0---0---0---0---0|
C|---------------------------------|------------------------------|------------------------------|


E|-8---------------8-------8-----|--------------------------------|-------------------------12\\0|
B|-9---------------9-------8-----|--------------------------------|-------------------------12\\0|
G|-------------------------------|-------------------------10b10.5|---------8b8.5-----------12\\0|
D|-------------------------------|--------------------------------|-------------------------12\\0|
F|-------------------------------|--------------------------------|-------------------------12\\0|
C|-8---8---8---8---8---8---8---8-|-8---8---8---8---8---8---8---8--|-8---8---8---8---8---8---12\\0|

Chorus:

E|---------------------------------|------------------------------|------------------------------|
B|---------------------------------|------------------------------|------------------------------|
G|---------------------------------|------------------------------|------------------------------|
D|---------------------------------|------------------------------|------------------------------|
F|-5---5---5---5---5---5---5---5---|-2---2---2---2---2---2---2---2|-5---2---5---5---5---5---5---5|
C|-3---3---3---3---3---3---3---3---|-0---0---0---0---0---0---0---0|-3---3---3---3---3---3---3---3|


E|--------------------------------|-------------------------------|------------------------------|
B|--------------------------------|-------------------------------|------------------------------|
G|--------------------------------|-------------------------------|------------------------------|
D|--------------------------------|-------------------------------|------------------------------|
F|-2---2---2---2---2---2---2---2--|-10--10--10--10--10--10--10--10|-2---2---2---2---2---2---2---2|
C|-0---0---0---0---0---0---0---0--|-8---8---8---8---8---8---8---8-|-0---0---0---0---0---0---0---0|


E|---------------------------------|------------------------------|------------------------------|
B|---------------------------------|------------------------------|------------------------------|
G|---------------------------------|------------------------------|------------------------------|
D|---------------------------------|------------------------------|------------------------------|
F|-10--10--10--10--10--10--10--10--|-2---2---2---2---2---2---2---2|-5---5---5---5---5---5---5---5|
C|-8---8---8---8---8---8---8---8---|-0---0---0---0---0---0---0---0|-3---3---3---3---3---3---3---3|


E|---------------------------------|------------------------------|------------------------------|
B|---------------------------------|------------------------------|------------------------------|
G|---------------------------------|------------------------------|------------------------------|
D|---------------------------------|------------------------------|------------------------------|
F|-2---2---2---2---2---2---2---2---|-5---5---5---5---5---5---5---5|-2---2---2---2---2---2---2---2|
C|-0---0---0---0---0---0---0---0---|-3---3---3---3---3---3---3---3|-0---0---0---0---0---0---0---0|


E|--------------------------------|------------------------------|-------------------------------|
B|--------------------------------|------------------------------|-------------------------------|
G|--------------------------------|------------------------------|-------------------------------|
D|--------------------------------|------------------------------|-------------------------------|
F|-10--10--10--10--10--10--10--10-|-2---2---2---2---2---2---2---2|-10--10--10--10--10--10--10--10|
C|-8---8---8---8---8---8---8---8--|-0---0---0---0---0---0---0---0|-8---8---8---8---8---8---8---8-|


E|-------------------------12\\0---|
B|-------------------------12\\0---|
G|-------------------------12\\0---|
D|-------------------------12\\0---|
F|-2---2---2---2---2---2---12\\0---|
C|-0---0---0---0---0---0---12\\0---|

Verse

Chorus

Verse (expect last two Bars as Below) (This is what sounds like a solo)

E|-------------------------8-------|
B|-------------------------9-------|
G|-------------------------10------|
D|---------------------------------|
F|---------------------------------|
C|-8---8---8---8---8---8---8---8---|


E|---------8---------------12\\0---|
B|---------9---------------12\\0---|
G|---------8---------------12\\0---|
D|-------------------------12\\0---|
F|-------------------------12\\0---|
C|-8---8---8---8---8---8---12\\0---|

Bridge (similar to intro)

E|-3-------3---3-----------3-------|---------------------------------|
B|-3b4-----------------------------|---------------------------------|
G|---------------------------------|---------------------------------|
D|---------------------------------|---------------------------------|
F|---------------------------------|---------------------------------|
C|-3---3---3---3---3---3---3---3---|-0---0---0---0---0---0---0---0---|

E|--------------------------------|--------------------------------|3----------------------------|
B|--------------------------------|--------------------------------|3b4--------------------------|
G|--------------------------------|--------------------------------|-----------------------------|
D|--------------------------------|--------------------------------|-----------------------------|
F|--------------------------------|--------------------------------|-----------------------------|
C|3---3---3---3---3---3---3---3---|0---0---0---0---0---0---0---0---|3---3---3---3---3---3---3---3|


E|-3---3-------3---3-------3---3---|-3---3-------3---3-------3---3|-3---3-------3---3-------3---3|
B|---------------------------------|------------------------------|------------------------------|
G|---------------------------------|------------------------------|------------------------------|
D|---------------------------------|------------------------------|------------------------------|
F|---------------------------------|------------------------------|------------------------------|
C|-0---0---0---0---0---0---0---0---|-3---3---3---3---3---3---3---3|-0---0---0---0---0---0---0---0|


E|-3-------------------------------|
B|-3b4-----------------------------|
G|---------------------------------|
D|---------------------------------|
F|---------------------------------|
C|-3---3---3---3---3---3---3---3---|

Chorus (skipping the first bar)

Intro

That's all there is!
            
Submit corrections


        Last Day Of Magic lessons Hard to play? Try these video lessons and learn fast Last Day Of Magic lessons
        
↑ Back to top | Tablatures and chords for acoustic guitar and electric guitar, ukulele, drums are parodies/interpretations of the original songs. You may use it for private study, scholarship, research or language learning purposes only