» » »

The Kills - Tape Song Tabs

Artists:  A B C D E F G H I J K L M N O P Q R S T U V W X Y Z # 

Tape Song Tabs

(ver. 2) Click to play this song!
The Kills
 Rating:
4/5 (8 votes)

 Tape Song lessons Tabs too difficult? Try these video lessons and learn fast
 
                ----------------------------------------------------------------------------
                         TAPE SONG - The Kills
----------------------------------------------------------------------------

Tuning:  Standard's fine

Intro

  Low E string plays G# - E

e|---------------   -----------------------|
B|---------------   -----------------------|
G|-9-9---9-9-8--- X  ------9---9-9-8/------|
D|--------------- 3  ----6-----------------|
A|---------------   ----7------------------|
E|---------------   -----------------------|


Verse

   Low E plays G# - B.  The second half of the verse has the overdub...

e|------7-7-4----------|
B|------------7--------|
G|---------------------|
D|--6-6----------------|
A|---------------------|
E|---------------------|

with short delay.

Chorus

   Chords are E and G#m, played at fret 7 and 4 respectively.

   Lick:
e|--------------     -------------|
B|--------------     -------------|
G|-------------- alt --4b6r-------|
D|--9b11r-------     -------6-4---|
A|--------11-9--     -------------|
E|--------------     -------------|

Break

e|--4--------4-------------4---------4----------|
B|--4--------4-------------4---------4----------|
G|--4--------4-------------4---------4----4b6r--|
D|----------------------------------------------|
A|-------2-4----2--2-4-2-------2-2--------------|
E|----4------------------4---4----------7/------|

e|--4--------4-------------4--------4--x-x-x----|
B|--4--------4-------------4--------4--x-x-x----|
G|--4--------4-------------4--------4--x-x-x----|  not sure
D|-------------------------------------x-x-x----|  about ending.
A|------2-4-----2--2-4-2-------2-4-----x-x-x----|
E|----4------------------4---4---------x-x-x----|

There's a lot of sampling and overdubs on this song,
so hard to play it all in one go.  Also, the use of
effects makes things confusing.  This is the best i 
can do.


| /  slide up
| \  slide down
| h  hammer-on
| p  pull-off
| ~  vibrato
| +  harmonic
| x  Mute note
============================================================================
            
Submit corrections


        Tape Song lessons Hard to play? Try these video lessons and learn fast Tape Song lessons
        
↑ Back to top | Tablatures and chords for acoustic guitar and electric guitar, ukulele, drums are parodies/interpretations of the original songs. You may use it for private study, scholarship, research or language learning purposes only