» » »

The Kills - Heart Of A Dog Tabs

Artists:  A B C D E F G H I J K L M N O P Q R S T U V W X Y Z # 

Heart Of A Dog Tabs

(ver. 2) Click to play this song!
The Kills
 Rating:
4.3/5 (9 votes)

 Heart Of A Dog  lessons Tabs too difficult? Try these video lessons and learn fast
 
                [Intro/Verse]
"From sea to mountain valley..."
e|--------------------------------------------------------------------------2------------|
B|--------------------------------------------------------------------------2------------|
G|--------------------------------------------------------------------------3------------|
D|--------------------------------------------------------------------------4------------|
A|----4------4------4-----4-----4-----4-----4------4-----4-----4-----4------4------------|
E|-6------6------6-----6-----6-----6-----6------6-----6-----6-----6---------2------------|

"I need you..."
e|--6--4---6--4---6-4---6--4-----6--4-6-4----6--4-6-4----2----------------------|
B|--6--6---6--6---6-6---6--6-----6--4-6-6----6--4-6-6----2----------------------|
G|--6--6---6--6---6-6---6--6-----6--5-6-6----6--5-6-6----3----------------------|
D|--8--6---8--6---8-6---8--6-----8--6-8-6----8--6-8-6----4----------------------|
A|--8--4---8--4---8-4---8--4-----8--6-8-4----8--6-8-4----4----------------------|
E|--6-----=6------6-----6--------6--4-6------6--4-6------2----------------------|

e|---------------------------------------------------------------------------|
B|---------------------------------------------------------------------------|
G|---------------------------------------------------------------------------|
D|---------------------------------------------------------------------------|
A|--------4-4----------4---------4-4-------4---------------------------------|
E|--4--6---------4-6-------4--6-------4-6------------------------------------|

"From starry eyes colliding..."
e|---------------------------------------------------------------------2------|
B|---------------------------------------------------------------------2------|
G|---------------------------------------------------------------------3------|
D|---------------------------------------------------------------------4------|
A|-----4------------4-------4-----------4-------4----------4-----4-----4------|
E|--6-------6--4-6-------6------6--4-6-------6------6--4-6----6--------2------|

"I get lost..."
e|------------------------------------------------------------------------------------2----|
B|------------------------------------------------------------------------------------2----|
G|------------------------------------------------------------------------------------3----|
D|------------------------------------------------------------------------------------4----|
A|---------4---------6----------6---------6-------4----------6---------6----------6---4----|
E|-6--4-6-----6--4-6-----6--4-6----6--4-6-----6-6-----6--4-6----6--4-6-----6--4-6-----2----|


e|-4--4--6---4--4-6/9-----4--4-6--5-4-6-6/9-------|
B|-6--4--6---6--4-6/9-----6--4-6--6-4-6-6/9-------|
G|-6--5--6---6--5-6/10----6--5-6--6-5-6-6/10------|
D|-6--6--8---6--6-8/11----6--6-8--6-6-8-8/11------|
A|-4--6--8---4--6-8/11----4--6-8--4-6-8-8/11------| x2
E|----4--6------4-6/9--------4-6----4-6-6/9-------|

"It's life or death why I chew through the chain..."
e|---------------------------------------------------------------------------|
B|---------------------------------------------------------------------------|
G|---------------------------------------------------------------------------|
D|---------------------------------------------------------------------------|
A|---------------------------------------------------------------------------|
E|-6-4-6---6-4-6---6-4-6---6-4-6---6-6-4-6---6-6-4-6---6-6-4-6---6-4-6-------|

"I'm loyal..."
e|---6--4---6--4----4---6--4---6--4-6--4--------2------|
B|---6--6---6--4-6--6---6--6---6--4-6--6--------2------|
G|---6--6---6--5-6--6---6--6---6--5-6--6--------3------|
D|---8--6---8--6-8--6---8--6---8--6-8--6--------4------|
A|---8--4---8--6-8--4---8--4---8--6-8--4--------4------|
E|---6------6--4-6------6------6--4-6--6--------2------|

"From bars to beds of laying..."
e|--------------------------------------------------------------------------------------------|
B|--------------------------------------------------------------------------------------------|
G|--------------------------------------------------------------------------------------------|
D|--------------------------------------------------------------------------------------------|
A|----------4------------4----------4--------6---4-----------4-----4------------4---------4---|
E|--6--4-6------6--4-6-------6--4-6-----6--6--------6--4-6-----6------6--4-6-----6--4-6-------|
            
Submit corrections


        Heart Of A Dog  lessons Hard to play? Try these video lessons and learn fast Heart Of A Dog  lessons
        
↑ Back to top | Tablatures and chords for acoustic guitar and electric guitar, ukulele, drums are parodies/interpretations of the original songs. You may use it for private study, scholarship, research or language learning purposes only