» » »

The Kills - Heart Of A Dog Tabs

Artists:  A B C D E F G H I J K L M N O P Q R S T U V W X Y Z # 

Heart Of A Dog Tabs

(ver. 1) Click to play this song!
The Kills
 Rating:
4.3/5 (15 votes)

 Heart Of A Dog  lessons Tabs too difficult? Try these video lessons and learn fast
 
                [Intro]

D#|-----------------------------------------|
A#|-----------------------------------------|
F#|-----------------------------------------|
C#|-----------------------------------------| x4
G#|-----------------------------------------|
C#|---9--------------------10---------------|


[Verse 1]
            From sea to mountain valley    
D#|-------------------------------------------|
A#|-------------------------------------------|
F#|-------------------------------------------|
C#|-------------------------------------------| x6
G#|-------------------------------------------|
C#|---9---------------------12----------------|

                 No matter what they're saying oooooh
D#|---------------------------------------------------------------------------|
A#|---------------------------------------------------------------------------|
F#|---------------------------------------------------------------------------|
C#|--------------------------------------------5------------------------------|
G#|--------------------------------------------5------------------------------|
C#|--9----------------------12-----------------5--------------------5-5-5-7---|
                                                    (let ring)                   
   I need you             
D#|------------------------------------------|
A#|------------------------------------------|
F#|------------------------------------------| 
C#|------------------------------------------| x4
G#|------------------------------------------|
C#|---9---------------------12---------------|


[Chorus]

   I'm loyal, oh oh      
D#|---------------------------------------------------------------------------|
A#|---------------------------------------------------------------------------|
F#|---------------------------------------------------------------------------|
C#|------------------------------------------------------5--------------------|
G#|------------------------------------------------------5--------------------|
C#|------9-------7-9-12----------9--------7-9-12---------5--------------------|
                                                           (let ring)
                                                                                                        
D#|---------------------------------------------------------------------------|
A#|---------------------------------------------------------------------------|
F#|---------------------------------------------------------------------------|
C#|---------------------------------------------------------------------------|
G#|---------------------------------------------------------------------------|
C#|--5-5-7-9----7-7-9--12\--------------7-9----7-7-9--12\---------------------|


[Verse 2]

           From starry eyes colliding
D#|---------------------------------------------------------------------------|
A#|---------------------------------------------------------------------------|
F#|---------------------------------------------------------------------------|
C#|---------------------------------------------------------------------------|
G#|---------------------------------------------------------------------------|
C#|--7-9-----12--------------------9------7-9-12------------------------------|

          From Mars to someone crying
D#|---------------------------------------------------------------------------|
A#|---------------------------------------------------------------------------|
F#|---------------------------------------------------------------------------|
C#|---------------------------------------------------------------------------|
G#|---------------------------------------------------------/9-7\5-0----------|
C#|----9-----12--------------------9------7-9-12------------------------------|

          I'm never far away
D#|---------------------------------------------------------------------------|
A#|----------------------------------------------------------7----7-----------|
F#|---------------------------------------------------------------------------|
C#|---------------------------------------------------------------------------|
G#|---------------------------------------------------------------------------|
C#|----9-----12--------------------9------7-9-12------------------------------|

         No matter what I'm hiding
D#|---------------------------------------------------------------------------|
A#|---------------------------------------------------------------------------|
F#|---------------------------------------------------------------------------|
C#|------------------------------------5--------------------------------------|
G#|------------------------------------5--------------------------------------|
C#|----9-----12------------------------5--------------------------------------|
                                         (let ring)

            I get lost            But I always come around
D#|---------------------------------------------------------------------------|
A#|-----------------------------------------------------------/7--------------|
F#|--------------------------------------------------------------9-7----------|
C#|------------------------------------------------------------------9--------|
G#|---------------------------------------------------------------------------|
C#|--7-7-9--------------7-9-12----------9----------7-9-12---------------------|

It's a strange fear              Allows me to be found
D#|---------------------------------------------------------------------------|
A#|---------------------------------------------------------------------------|
F#|---------------------------------------------------------------------------|
C#|---------------------------------------------------------------------------|
G#|-------------------------------------------------------/9-7\5-0------------|
C#|----9----7-9-12--------------------9------7-9-12---------------------------|


[Chorus]

   I'm loyal, oh oh      
D#|---------------------------------------------------------------------------|
A#|---------------------------------------------------------------------------|
F#|---------------------------------------------------------------------------|
C#|---------------------------------------------------------------------------|
G#|---------------------------------------------------------------------------|
C#|------9-------9-12----------9--------7-9-12--------------------------------|

   I'm loyal, oh oh    I got the heart of a dog
D#|---------------------------------------------------------------------------|
A#|---------------------------------------------------------------------------|
F#|---------------------------------------------------------------------------|
C#|--------------------------------------------------------5------------------|
G#|--------------------------------------------------------5------------------|
C#|------9------7-9-12----------9--------7-9-12-----12\7---5------------------|
                                                             (let ring)

D#|---------------------------------------------------------------------------|
A#|---------------------------------------------------------------------------|
F#|---------------------------------------------------------------------------| 
C#|---------------------------------------------------------------------------| x2
G#|---------------------------------------------------------------------------|
C#|--(5-5)-7-9----7-7-9--12\--------------7-9----7-7-9--12\-------------------|


[Bridge]

It's life or death     
D#|------------------------|
A#|------------------------|
F#|------------------------|
C#|------------------------| x8
G#|--9--7--9---------------|
C#|------------------------|


[Chorus]

   I'm loyal, oh oh      
D#|---------------------------------------------------------------------------|
A#|---------------------------------------------------------------------------|
F#|---------------------------------------------------------------------------|
C#|---------------------------------------------------------------------------|
G#|---------------------------------------------------------------------------|
C#|------9---------12----------9--------7-9-12--------------------------------|

   I'm loyal, oh oh    I got the heart of a dog
D#|---------------------------------------------------------------------------|
A#|---------------------------------------------------------------------------|
F#|---------------------------------------------------------------------------|
C#|--------------------------------------------------------5------------------|
G#|--------------------------------------------------------5------------------|
C#|------9------7-9-12----------9--------7-9-12-----12\7---5------------------|
                                                             (let ring)

[Verse 3]

      From bars to beds of laying
D#|---------------------------------------------------------------------------|
A#|---------------------------------------------------------------------------|
F#|---------------------------------------------------------------------------|
C#|---------------------------------------------------------------------------|
G#|---------------------------------------------------------/9-7\5-0----------|
C#|----9----7-9-12--------------------9------7-9-12---------------------------|

        From boots of lead to changing
D#|-----------------------------------------------------------14-14\----------|
A#|-----------------------------------------------------------14-14\----------|
F#|---------------------------------------------------------------------------|
C#|---------------------------------------------------------------------------|
G#|---------------------------------------------------------------------------|
C#|----9-----12--------------------9------7-9-12------------------------------|

        I'm hooked from deep inside
D#|---------------------------------------------------------------------------|
A#|-----------------------------------------------------------7-7-------------|
F#|---------------------------------------------------------------9-----------|
C#|-----------------------------------------------------------------9---------|
G#|---------------------------------------------------------------------------|
C#|----9-----12--------------------9----------12------------------------------|
                                                    (something like this)

     Call when you're ready cos I'm ready to ride
D#|---------------------------------------------------------------------------|
A#|---------------------------------------------------------------------------|
F#|---------------------------------------------------------------------------|
C#|----9----------------------------------------------------------------------|
G#|----9-----------------------------------/9-7\5--5--------------------------|
C#|----9----7-9-12--------------------9-----------7--9------------------------|            
Submit corrections


        Heart Of A Dog  lessons Hard to play? Try these video lessons and learn fast Heart Of A Dog  lessons
        
↑ Back to top | Tablatures and chords for acoustic guitar and electric guitar, ukulele, drums are parodies/interpretations of the original songs. You may use it for private study, scholarship, research or language learning purposes only