» » »

The Kills - Doing It To Death Tabs

Artists:  A B C D E F G H I J K L M N O P Q R S T U V W X Y Z # 

Doing It To Death Tabs

(ver. 2) Click to play this song!
The Kills
 Rating:
4.3/5 (18 votes)

 Doing It To Death lessons Tabs too difficult? Try these video lessons and learn fast
 
                [Intro]
C#|--------------7-7-------------------------------------5-5-5-5---------------|
G#|------------------8-8---------7-7/---------7-7--------5-5-5-5---------------|
E |----------9-9-------------7-7---------7-7-----7-7-----5-5-5-5---------------|
B |----------------------------------------------------------------------------|
F#|-----7-7--------------5-5---------5-5---------------------------------------|
C#|12/0-----------------------------------------------5-5----------------------|

C#|-----------7-7-------------------------------------5-5-5-5---------------|
G#|---------------8-8---------7-7/---------5/7/5------5-5-5-5---------------|
E |-------9-9-------------7-7---------7-7--------7----5-5-5-5---------------|
B |-------------------------------------------------------------------------|
F#|--7-7--------------5-5---------5-5-------------5-------------------------|
C#|-------------------------------------------------5-----------------------|


[Verse 1]
C#|-------------------7---------------------------------5--------------------------|
G#|-------------------7---------------------------------5--------------------------|
E |---------------x---7---------------------------------5--------------------------|
B |---------------x------------------------------------------------------x---------|
F#|---------------x---------------------x--------------------------------x---------|
C#|-12/0--0-3-0-7---7---5-5-5-5-5-3b-0--x--0-8-8-8-8-7-5----3-3-3-3-2b-0-----------|

C#|------------------7--------------------------------5-------------------------|
G#|------------------7--------------------------------5-------------------------|
E |------------------7--------------------------------5-------------------------|
B |-----------------------------------------------------------------------------|
F#|---------x-------------------------------------------------------------------|
C#|---------x-------------------------------------------------------------------|
E|--0-7-7-7---7-7-7----5-5-5-5-3b-0--x--0-8-8-8-8-7-5----3-3-3-3-2-0-0----------|

C#|---------------------------------------------------------------------------|
G#|---------------------------------------------------------------------------|
E |---------------------------------------------------------------------------|
B |---------------------------------------------------------------------------|
F#|---------------------------------------------------------------------------|
C#|-0-8-8-8-7-7-----5-5-5-5-5-5-3/-0-0---0-8-8-8-7-7-----5-5-5-5-5-5-3/15-----|


[Chorus]
C#|-----------7-7-------------------------------------5-5-5-5---------------|
G#|---------------8-8---------7-7/---------7-7--------5-5-5-5---------------|
E |-------9-9-------------7-7---------7-7-----7-7-----5-5-5-5---------------|
B |-------------------------------------------------------------------------|
F#|--7-7--------------5-5---------5-5---------------------------------------|
C#|-----------------------------------------------5-5-----------------------|

C#|-----------7-7-------------------------------------5-5-5-5---------------|
G#|---------------8-8---------7-7/---------5/7/5------5-5-5-5---------------|
E |-------9-9-------------7-7---------7-7--------7----5-5-5-5---------------|
B |-------------------------------------------------------------------------|
F#|--7-7--------------5-5---------5-5-------------5-------------------------|
C#|-------------------------------------------------5-----------------------|


[Verse 2]
C#|---------------7---7-----------------------------------5-------------------------|
G#|---------------7---7-----------------------------------5-------------------------|
E |---------------7---7-----------------------------------5-------------------------|
B |--------------------------------------------------------------------------x------|
F#|-------------------------------------x------------------------------------x------|
C#|-12/0--0-3-0-7---7---5-5-5-5-5-3b-0--x--0-8-8-8-8-7-7-5----3-3-3-3-3-2-0---------|


C#|---------7---------7-----------------------------------5-------------------------|
G#|---------7---------7-----------------------------------5-------------------------|
E |---------7---------7-----------------------------------5-------------------------|
B |---------------------------------------------------------------------------------|
F#|---------------------------------------------------------------------------------|
C#|----------------------------------------------------------------------2-2--------|
E|--0-7-7-7---7-7-7----5-5-5-5-5-3b-0--x--0-8-8-8-8-7-7-5----3-3-3-3-3-2-0-0--------|

C#|-------------------------------------------------------------------------------------|
G#|-------------------------------------------------------------------------------------|
E |-------------------------------------------------------------------------------------|
B |-5-5-5-4-4------------------------5-5-5-4-4------------------------------------------|
F#|-3-3-3-2-2-------------------2-2--3-3-3-2-2------------------------------------------|
C#|-----------5-5-5-5-3/15/3----0-0------------5-5-5-5-3/15-----------------------------|


[Chorus]
C#|-----------7-7-------------------------------------5-5-5-5---------------|
G#|---------------8-8---------7-7/---------7-7--------5-5-5-5---------------|
E |-------9-9-------------7-7---------7-7-----7-7-----5-5-5-5---------------|
B |-------------------------------------------------------------------------|
F#|--7-7--------------5-5---------5-5---------------------------------------|
C#|-----------------------------------------------5-5-----------------------|

C#|-----------7-7-------------------------------------5-5-5-5---------------|
G#|---------------8-8---------7-7/---------5/7/5------5-5-5-5---------------|
E |-------9-9-------------7-7---------7-7--------7----5-5-5-5---------------|
B |------------------------------------------------------------------2------|
F#|--7-7--------------5-5---------5-5-------------5------------/5p0--2------|
C#|-------------------------------------------------5----------------0------|


[Bridge]
C#|------------------0-0-0-0------------0----------0-0-0-0-------------0-----------------|
G#| -----------------1-1-1-1------------0----------1-1-1-1-------------0-----------------|
E |------------------0-0-0-0------------0----------0-0-0-0-------------0-----------------|
B |--2-2-2-----------2-2-2-2----------2-2-2-2------2-2-2-2-----------2-2-----------------|
F#|--2-2-2--2-2---5--3-3-3-3-3-3-2-0--2-2-2-2----5-3-3-3-3-3-3-3-2-0-2-2-----------------|
C#|--0-0-0--0-0-3---------------------0-0-0-0--3---------------------0-0-----------------|

C#|------------------0-0-0-0------------0----------0-0-0-0-------------0-----------------|
G#| -----------------1-1-1-1------------0----------1-1-1-1-------------0-----------------|
E |------------------0-0-0-0------------0----------0-0-0-0-------------0-----------------|
B |--2---------------2-2-2-2----------2-2-2-2------2-2-2-2-----------2-2-----------------|
F#|--2(X8)-2-2----5--3-3-3-3-3-3-2-0--2-2-2-2----5-3-3-3-3-3-3-3-2-0-2-2-----------------|
C#|--0-----0-0-0-3--------------------0-0-0-0--3---------------------0-0-----------------|


[Chorus]

[Chorus]

C#|-----------7-7-------------------------------------5-5-5-5---------------|
G#|---------------8-8---------7-7/---------7-7--------5-5-5-5---------------|
E |-------9-9-------------7-7---------7-7-----7-7-----5-5-5-5---------------|
B |-------------------------------------------------------------------------|
F#|--7-7--------------5-5---------5-5---------------------------------------|
C#|-----------------------------------------------5-5-----------------------|

C#|-----------7-7-------------------------------------5-5-5-5---------------|
G#|---------------8-8---------7-7/---------5/7/5------5-5-5-5---------------|
E |-------9-9-------------7-7---------7-7--------7----5-5-5-5---------------|
B |------------------------------------------------------------------2------|
F#|--7-7--------------5-5---------5-5-------------5------------/5p0--2------|
C#|-------------------------------------------------5----------------0------|

            
Submit corrections


        Doing It To Death lessons Hard to play? Try these video lessons and learn fast Doing It To Death lessons
        
↑ Back to top | Tablatures and chords for acoustic guitar and electric guitar, ukulele, drums are parodies/interpretations of the original songs. You may use it for private study, scholarship, research or language learning purposes only