» » »

The Kills - Doing It To Death Tabs

Artists:  A B C D E F G H I J K L M N O P Q R S T U V W X Y Z # 

Doing It To Death Tabs

(ver. 1) Click to play this song!
The Kills
 Rating:
4.3/5 (13 votes)

 Doing It To Death  lessons Tabs too difficult? Try these video lessons and learn fast
 
                [Intro]

c#|--------------------------------------------------------------------------|
G#|--------------------------------------------------------------------------|
E |--------------------------------------------------------------------------|
B |--------------------------------------------------------------------------|
F#|--------------------------------------------------------------------------|
C#|----12\0------------------------------------------------------------------|

c#|----|----------------------|------------------|--------------------|---0-0-0-0----|
G#|----|---------12-12-8-8----|---------7-7------|---------7-7-3-3----|---1-1-1-1----|
E |----|----------------------|------------------|--------------------|---2-2-2-2----|
B |----|----------------------|------------------|--------------------|---2-2-2-2----|
F#|--7-|-7-10-10--------------|------------------|------------------0-|-0------------|
C#|----|-------------------10-|-7-10-10--------7-|-7-10-10------------|--------------|

c#|----|----------------------|------------------|------------------|---0-0-0-0------|
G#|----|---------12-12-8-8----|---------7-7------|---------5-7-5-3--|---1-1-1-1------|
E |----|----------------------|------------------|------------------|---2-2-2-2------|
B |----|----------------------|------------------|------------------|---2-2-2-2------|
F#|--7-|-7-10-10--------------|------------------|------------------|-0--------------|
C#|----|-------------------10-|-7-10-10--------7-|-7-10-10----------|----------------|


[Verse]

"baby, save it, we're wasted . . ."
c#|----------------x-----x--|--------------|-----------------------|-5\-------------------|
G#|----------------x-----x--|--------------|-----------------------|-5\-------------------|
E |----------------x-----x--|--------------|-----------------------|-5\-------------------|
B |-------------------------|--------------|-----------------------|----------------------|
F#|-------------------------|--------------|-----------------------|----------------------|
C#|--0----0-5-0-7-----7-----|--5-5-5-5-5-3-|-0----8-8-8-8-8-8-7-5--|------3-3-3-3-3-2-----|

c#|----------------7------7-|----------------|-----------------------|-5\-----------------|
G#|----------------7------7-|----------------|-----------------------|-5\-----------------|
E |----------------7------7-|----------------|-----------------------|-5\-----------------|
B |-------------------------|----------------|-----------------------|--------------------|
F#|-------------------------|----------------|-----------------------|--------------------|
C#|--0---------777----7-7---|----5-5-5-5-5-3-|-0----8-8-8-8-8-8-7-5--|-------3-3-3-3-3-2--|


[Pre-Chorus]

"heads up, we're in a dead club . . ."
c#|--------x----------x-|-------x---------x-|-------x---------x-|-------x---------x----|
G#|--------x----------x-|-------x---------x-|-------x---------x-|-------x---------x----|
E |--------x----------x-|-------x---------x-|-------x---------x-|-------x---------x----|
B |--------x----------x-|-------x---------x-|-------x---------x-|-------x---------x----|
F#|---------------------|-------------------|-------------------|----------------------|
C#|--0-0-0------8-8-8---|-7-7-7-----5-5-5---|-0-0-0-----8-8-8---|-7-7-7-----5-5-5------|


[Chorus]

"doing it to death, oh oh . . ."
c#|----|----------------------|------------------|--------------------|---0-0-0-0----|
G#|----|---------12-12-8-8----|---------7-7------|---------7-7-3-3----|---1-1-1-1----|
E |----|----------------------|------------------|--------------------|---2-2-2-2----|
B |----|----------------------|------------------|--------------------|---2-2-2-2----|
F#|--7-|-7-10-10--------------|------------------|------------------0-|-0------------|
C#|----|-------------------10-|-7-10-10--------7-|-7-10-10------------|--------------|

c#|----|----------------------|------------------|------------------|---0-0-0-0------|
G#|----|---------12-12-8-8----|---------7-7------|---------5-7-5-3--|---1-1-1-1------|
E |----|----------------------|------------------|------------------|---2-2-2-2------|
B |----|----------------------|------------------|------------------|---2-2-2-2------|
F#|--7-|-7-10-10--------------|------------------|------------------|-0--------------|
C#|----|-------------------10-|-7-10-10--------7-|-7-10-10----------|----------------|


[Verse]

"baby, lately, the plans we're making . . ."
c#|----------------7-----7-|---------------|-----------------------|--5\------------------|
G#|----------------7-----7-|---------------|-----------------------|--5\------------------|
E |----------------7-----7-|---------------|-----------------------|--5\------------------|
B |------------------------|---------------|-----------------------|----------------------|
F#|------------------------|---------------|-----------------------|----------------------|
C#|--0----0-5-0-7-----7----|---5-5-5-5-5-3-|-0----8-8-8-8-8-8-7-5--|-------3-3-3-3-3-2----|

c#|----------------7------7--|---------------|-----------------------|-5\-----------------|
G#|----------------7------7--|---------------|-----------------------|-5\-----------------|
E |----------------7------7--|---------------|-----------------------|-5\-----------------|
B |--------------------------|---------------|-----------------------|--------------------|
F#|--------------------------|---------------|-----------------------|--------------------|
C#|--0---------777----7-7----|---5-5-5-5-5-3-|-0----8-8-8-8-8-8-7-5--|-------3-3-3-3-3-2--|


[Pre-Chorus]

"listen up, it's picking up . . ."
c#|--------x----------x-|-------x---------x-|-------x---------x-|-------x---------x----|
G#|--------x----------x-|-------x---------x-|-------x---------x-|-------x---------x----|
E |--------x----------x-|-------x---------x-|-------x---------x-|-------x---------x----|
B |--------x----------x-|-------x---------x-|-------x---------x-|-------x---------x----|
F#|---------------------|-------------------|-------------------|----------------------|
C#|--0-0-0------8-8-8---|-7-7-7-----5-5-5---|-0-0-0-----8-8-8---|-7-7-7-----5-5-5------|


[Chorus]

"doing it to death, oh oh . . ."
c#|----|----------------------|------------------|--------------------|---0-0-0-0----|
G#|----|---------12-12-8-8----|---------7-7------|---------7-7-3-3----|---1-1-1-1----|
E |----|----------------------|------------------|--------------------|---2-2-2-2----|
B |----|----------------------|------------------|--------------------|---2-2-2-2----|
F#|--7-|-7-10-10--------------|------------------|------------------0-|-0------------|
C#|----|-------------------10-|-7-10-10--------7-|-7-10-10------------|--------------|

c#|----|----------------------|------------------|------------------|----0-0-0-0-----|
G#|----|---------12-12-8-8----|---------7-7------|---------5-7-5-3--|----1-1-1-1-----|
E |----|----------------------|------------------|------------------|----2-2-2-2-----|
B |----|----------------------|------------------|------------------|----2-2-2-2-----|
F#|--7-|-7-10-10--------------|------------------|------------------|--0-------------|
C#|----|-------------------10-|-7-10-10--------7-|-7-10-10----------|----------------|


[Bridge]

(hard to hear exactly what is going on, but i think this is close)

"we're double sixing it, night after night after night . . ."
c#|----0----|------------------------|------------------|-------------|-------------------|
G#|----0----|------------------------|------------------|-------------|-------------------|
E |----0----|------------------------|------------------|-------------|-------------------|
B |----2----|------------------------|------------------|-------------|-------------------|
F#|----2----|------------------------|------------------|-------------|-------------------|
C#|----0----|-0---0--0--0-0-000-3-10-|-8----888-7-5-7-0-|----000-3-10-|-8----888-7-5-7-0--|

c#|-------------|-----------------|-------------|--------------------|
G#|-------------|-----------------|-------------|--------------------|
E |-------------|-----------------|-------------|--------------------|
B |-------------|-----------------|-------------|--------------------|
F#|-------------|-----------------|-------------|--------------------|
C#|----000-3-10-|-8----888-7-10-0-|----000-3-10-|-8----888-7-10-0----|


[Intro]

c#|----|----------------------|------------------|--------------------|---0-0-0-0----|
G#|----|---------12-12-8-8----|---------7-7------|---------7-7-3-3----|---1-1-1-1----|
E |----|----------------------|------------------|--------------------|---2-2-2-2----|
B |----|----------------------|------------------|--------------------|---2-2-2-2----|
F#|--7-|-7-10-10--------------|------------------|------------------0-|-0------------|
C#|----|-------------------10-|-7-10-10--------7-|-7-10-10------------|--------------|

c#|----|----------------------|------------------|------------------|----0-0-0-0-----|
G#|----|---------12-12-8-8----|---------7-7------|---------5-7-5-3--|----1-1-1-1-----|
E |----|----------------------|------------------|------------------|----2-2-2-2-----|
B |----|----------------------|------------------|------------------|----2-2-2-2-----|
F#|--7-|-7-10-10--------------|------------------|------------------|--0-------------|
C#|----|-------------------10-|-7-10-10--------7-|-7-10-10----------|----------------|


[Chorus]

"doing it to death, oh oh . . ."
c#|----|----------------------|------------------|--------------------|---0-0-0-0----|
G#|----|---------12-12-8-8----|---------7-7------|---------7-7-3-3----|---1-1-1-1----|
E |----|----------------------|------------------|--------------------|---2-2-2-2----|
B |----|----------------------|------------------|--------------------|---2-2-2-2----|
F#|--7-|-7-10-10--------------|------------------|------------------0-|-0------------|
C#|----|-------------------10-|-7-10-10--------7-|-7-10-10------------|--------------|

c#|----|----------------------|------------------|------------------|----0-0-0-0-----|
G#|----|---------12-12-8-8----|---------7-7------|---------5-7-5-3--|----1-1-1-1-----|
E |----|----------------------|------------------|------------------|----2-2-2-2-----|
B |----|----------------------|------------------|------------------|----2-2-2-2-----| X2
F#|--7-|-7-10-10--------------|------------------|------------------|--0-------------|
C#|----|-------------------10-|-7-10-10--------7-|-7-10-10----------|----------------|


[Outro]

c#|--------------------|-------------------------|
G#|--------------------|-------------------------|
E |----------12----16--|-------------------------|
B |----14----12----16--|--14-16-12-14-16-14------|
F#|--------------------|-------------------------|
C#|--------------------|-------------------------|

c#|----|----------------------|------------------|------------------|----0-0-0-0\-----|
G#|----|---------12-12-8-8----|---------7-7------|---------7-7-3-3--|----1-1-1-1\-----|
E |----|----------------------|------------------|------------------|----2-2-2-2\-----|
B |----|----------------------|------------------|------------------|----2-2-2-2\-----|
F#|--7-|-7-10-10--------------|------------------|------------------|--0--------------|
C#|----|-------------------10-|-7-10-10--------7-|-7-10-10----------|-----------------|            
Submit corrections


        Doing It To Death  lessons Hard to play? Try these video lessons and learn fast Doing It To Death  lessons
        
↑ Back to top | Tablatures and chords for acoustic guitar and electric guitar, ukulele, drums are parodies/interpretations of the original songs. You may use it for private study, scholarship, research or language learning purposes only