Home » T » The Icarus Account »

The Icarus Account - Angel Of MineIntro Tabs

Artists:  A B C D E F G H I J K L M N O P Q R S T U V W X Y Z # 

Angel Of MineIntro Tabs

(ver. 2) Click to play this song!
The Icarus Account
Intro
Verse (there was a time)
Verse (I was sure right from)
Chorus (so maybe I've fallen in love)
Post Chorus (angel of mine)
Verse (I've never been the type)
Chorus (so maybe we've fallen in love)
Post Chorus 2 (angel of mine)
Bridge (where did you come from)
Chorus (so finally I've fallen in love)



Intro
     1   +   2   +   3   +   4   +   | 1   +   2   +   3   +   4   +   | 1   +   2   +   3   +   4   +
eb |---------------------------------|---------------------------------|---------------------------------|
Bb |---------------------------------|---------0-----------------------|---------------------------------|
Gb |---------0--h2---2h4-2---0-------|-------------0-----------0-------|---------0--h2---2h4-2---0-------|
Db |-----------------------------0---|-----0h2p-----------0h4------0---|-----0-----------------------0---|
Ab |---------------------------------|-3---------------5---------------|---------------------------------|
Eb |---------------------------------|---------------------------------|-3-------------------------------|


   | 1   +   2   +   3   +   4   +   | 1   +   2   +   3   +   4   +   | 1   +   2   +   3   +   4   +
eb |---------------------------------|---------------------------------|---------------------2--h3-------|
Bb |---------0---------------0-------|-------------8---7---5---3---5---|---------5-------3-----------3---|
Gb |-------------0---------------0---|-----0---------------------------|-0-----------0-------------------|
Db |-----0h2p-----------0h4----------|---------------------------------|---------------------------------|
Ab |-3---------------5---------------|/7-------7-------5---3---2---3---|-----3-----------2---------------|
Eb |---------------------------------|---------------------------------|---------------------------------|


   | 1   +   2   +   3   +   4   +   | 1   +   2   +   3   +   4   +
eb |---------------------------------|---------------------------------|
Bb |-1-----------1---0---------------|-------------0----------------<7>|
Gb |-----0---------------2---0-------|-2----------------------------<7>|
Db |-----------------------------0---|-----0---------------0-----------|
Ab |-0-------0-----------------------|---------0-----------------------|
Eb |-----------------3---------------|-2-------------------------------|


Verse
     1   +   2   +   3   +   4   +   | 1   +   2   +   3   +   4   +   | 1   +   2   +   3   +   4   +
eb |---------------------------------|---------------------------------|---------------------------------|
Bb |---------------------------------|---------0-----------------------|---------------------------------|
Gb |---------0--h2---2h4-2---0-------|-------------0-----------0-------|---------0--h2---2h4-2---0-------|
Db |-----------------------------0---|-----0h2p-----------0h4------0---|-----0-----------------------0---|
Ab |---------------------------------|-3---------------5---------------|---------------------------------|
Eb |---------------------------------|---------------------------------|-3-------------------------------|
                                       C               D                 G

     1   +   2   +   3   +   4   +   | 1   +   2   +   3   +   4   +   | 1   +   2   +   3   +   4   +
eb |---------------------------------|-------------3-----------2-------|---------------------------------|
Bb |---------0---------------0-------|---------------------------------|---------3---------------3-------|
Gb |-------------0---------------0---|-----0---------------2-------2---|-----0-------0-------0-------0---|
Db |-----0h2p-----------0h4----------|-2-------2-------0---------------|---------------------------------|
Ab |-3---------------5---------------|---------------------------------|-3---------------2---------------|
Eb |---------------------------------|---------------------------------|---------------------------------|
     C               D                 Em              D                 C               B


     1   +   2   +   3   +   4   +   | 1   +   2   +   3   +   4   +
eb |---------------------------------|---------------------------------|
Bb |---------1---------------0-------|-------------0---------------3---|
Gb |-----2-------2-------0-------0---|-----2---------------2-----------|
Db |---------------------------------|---------------------------------|
Ab |-0-------------------------------|---------------------------------|
Eb |-----------------3---------------|-2-------2---------------2-------|
     Am              G                 F#/D


Chorus (play twice, including the notes in parenthesis the second time)
     1   +   2   +   3   +   4   +   | 1   +   2   +   3   +   4   +
eb |---------------------------------|---------------------------------|
Bb |-------------3-------------------|-------------3-------------------|
Gb |-----0-------0-------------------|-------------0-------------------|
Db |---------------------------------|-----0h2p------------------------|
Ab |-2-------2-----------------------|-3-------3-----------------------|
Eb |---------------------------------|---------------------------------|
     G                                 C

     1   +   2   +   3   +   4   +   | 1   +   2   +   3   +   4   +
eb |---------------------------------|---------------------------------|
Bb |-------------3-------------------|-------------3-----------3-------|
Gb |-----0-------0-------------------|-------------0-------0-------0---|
Db |---------------------------------|-----0h2p------------------------|
Ab |-2-------2-----------------------|-3-------3-------3---------------|
Eb |---------------------------------|---------------------------------|
     G                                 C

     1   +   2   +   3   +   4   +   | 1   +   2   +   3   +   4   +
eb |---------------------------------|---------------------------------|
Bb |---------1---------------0-------|-------------0-------------(<7>)-|
Gb |-----2-------2-------0-------0---|-----2--------------(2)----(<7>)-|
Db |---------------------------------|---------------------------------|
Ab |-0-------------------------------|---------------------------------|
Eb |-----------------3---------------|-2-------2--------------(2)------|
     Am               G                F#/D


Post Chorus
     1   +   2   +   3   +   4   +   | 1   +   2   +   3   +   4   +
eb |---------------------------------|---------3--p2---0---------------|
Bb |---------0---------------0-------|---------------------3-----------|
Gb |-------------0---------------0---|-----0-------------------0-------|
Db |-----0h2p------------4-----------|---------------------------------|
Ab |-3---------------5---------------|---------------------------------|
Eb |---------------------------------|-3-----------------------3-------|
     C               D                 G

     1   +   2   +   3   +   4   +   | 1   +   2   +   3   +   4   +
eb |---------------------------------|---------------------------------|
Bb |---------0---------------0-------|---------0---------------0-------|
Gb |-------------0---------------0---|-------------0---------------0---|
Db |-----0h2p------------4-----------|-----5---------------4-----------|
Ab |-3---------------5---------------|-7---------------5---------------|
Eb |---------------------------------|---------------------------------|
     C               D                 Em              D

     1   +   2   +   3   +   4   +   | 1   +   2   +   3   +   4   +
eb |-------------3-------------------|-2-------------------------------|
Bb |---------------------------------|-3-------------------------------|
Gb |---------------------------------|-2-------------------------------|
Db |-----2---------------2-----------|-0-------------------------------|
Ab |-3-------3---------------3-------|---------------------------------|
Eb |---------------------------------|---------------------------------|
     C                                 D


Post Chorus 2
     1   +   2   +   3   +   4   +   | 1   +   2   +   3   +   4   +
eb |---------------------------------|---------3--p2---0---------------|
Bb |---------0---------------0-------|---------------------3-----------|
Gb |-------------0---------------0---|-----0-------------------0-------|
Db |-----0h2p------------4-----------|---------------------------------|
Ab |-3---------------5---------------|---------------------------------|
Eb |---------------------------------|-3-----------------------3-------|
     C               D                 G

     1   +   2   +   3   +   4   +   | 1   +   2   +   3   +   4   +
eb |---------------------------------|---------------------------------|
Bb |---------0---------------0-------|---------0---------------0-------|
Gb |-------------0---------------0---|-------------0---------------0---|
Db |-----0h2p------------4-----------|-----5---------------4-----------|
Ab |-3---------------5---------------|-7---------------5---------------|
Eb |---------------------------------|---------------------------------|
     C               D                 Em              D

     1   +   2   +   3   +   4   +   | 1   +   2   +   3   +   4   +
eb |---------------------------------|---------------------------------|
Bb |-------------5---------------5---|-------------5-------------------|
Gb |---------------------------------|---------------------------------|
Db |-----2---------------2-----------|-----2---------------2-------2---|
Ab |-3-------3---------------3-------|---------3---------------3-------|
Eb |---------------------------------|---------------------------------|
     C                                 C

     1   +   2   +   3   +   4   +   | 1   +   2   +   3   +   4   +
eb |-----------------------------0---|---------------------------------|
Bb |-------------7-------------------|-------------7-------------------|
Gb |---------------------------------|---------------------------------|
Db |-----4---------------5-----------|-----2---------------------------|
Ab |-5-------5---------------4-------|---------3-----------------------|
Eb |---------------------------------|---------------------------------|
     D                                 D


Bridge
     1   +   2   +   3   +   4   +   | 1   +   2   +   3   +   4   +
eb |---------------------------------|---------2--h3--p2--p0-----------|
Bb |---------0---------------0-------|---------------------------------|
Gb |-------------0---------------0---|-----0---------------------------|
Db |-----0h2p------------4-----------|---------------------------------|
Ab |-3---------------5---------------|---------------------------------|
Eb |---------------------------------|-3-------------------------------|
     C               D                 G

     1   +   2   +   3   +   4   +   | 1   +   2   +   3   +   4   +
eb |---------------------------------|---------------------------------|
Bb |---------0---------------0-------|---------8---------------7-------|
Gb |-------------0---------------0---|---------------------------------|
Db |-----0h2p------------4-----------|-----5-------5-------4-------4---|
Ab |-3---------------5---------------|-7---------------5---------------|
Eb |---------------------------------|---------------------------------|
     C               D                 Em              D

     1   +   2   +   3   +   4   +   | 1   +   2   +   3   +   4   +
eb |-------------0---------------0---|---------------------------------|
Bb |---------------------------------|---------------------------------|
Gb |---------------------------------|---------------------------------|
Db |-----2---------------2-----------|---------------------------------|
Ab |-3-------3---------------3-------|---------------------------------|
Eb |---------------------------------|---------------------------------|
     C                                 C

     1   +   2   +   3   +   4   +   | 1   +   2   +   3   +   4   +
eb |-------------2---------------5---|---------------------------------|
Bb |-----3---------------3-----------|---------------------------------|
Gb |---------------------------------|---------------------------------|
Db |-0-------0---------------0-------|---------------------------------|
Ab |---------------------------------|---------------------------------|
Eb |---------------------------------|---------------------------------|
     D                                 D            
Submit corrections

↑ Back to top | Tablatures and chords for acoustic guitar and electric guitar, ukulele, drums are parodies/interpretations of the original songs. You may use it for private study, scholarship, research or language learning purposes only