Home » T » The Icarus Account »

The Icarus Account - Angel Of MineIntro Tabs

Artists:  A B C D E F G H I J K L M N O P Q R S T U V W X Y Z # 

Angel Of MineIntro Tabs

(ver. 1) Click to play this song!
The Icarus Account
I haven't really noticed any "Angel of Mine" tabs yet, so I thought I would take the
initiative and make one for you guys :3 This is just the intro, just most of the same
chords and patterns just repeat throughout the song, but I'll make it a point to finish 
it up later, promise! -Piers

Tuning: Half Step Down (D# G# C# F# A# D#)

intro
D#:-----------------|-----------------|-----------------|
G#:-----------------|-3---------------|-5---------------|
C#:-------------0---|---0h2p0---------|---4-------------| x2
F#:-0-2-2h4-2-0-----|-----------0-----|--------0--------|
A#:-----------------|---------0-------|------0----------|
D#:-----------------|-----------------|-----------------|

D#:-----------------|-----------------|----3------------|-2---------------|
G#:-7---7---5--3--2-|-3---3---2-------|-0---------------|-----------------|
C#:-----------------|-----------------|-----------------|---0-------0-----|
F#:---0-------------|---0-------------|-------2-0-------|-2---2---2-------|
A#:-------8-7--5--3-|-5-----5-3-------|-1--0------------|-------0-----3---|
D#:-----------------|------------2-3--|-----------------|-----------------|
            
Submit corrections

↑ Back to top | Tablatures and chords for acoustic guitar and electric guitar, ukulele, drums are parodies/interpretations of the original songs. You may use it for private study, scholarship, research or language learning purposes only