Home » T » The Icarus Account »

The Icarus Account - Favorite Girl Chords

Artists:  A B C D E F G H I J K L M N O P Q R S T U V W X Y Z # 

Favorite Girl Chords

(ver. 1) Click to play this song!
The Icarus Account
>>>>>>>>Capo 5<<<<<<<

super awesome song :)

*secret note*
every time i put a C or a Cadd9 i mean a Cadd9. as in hold the 3rd fret on the high e.
actually, hold the third fret (relative to capo) on the high e string for all the 
chords exept during the D chords in the bridge which you will hear in the song.
:)
and the G/A chord is simply like this (if this explains it) from low E to high e [x 0 2 2 3 3] 
also. i tried my best to make sure this was legit. rate and comment, its the only way to 
it better :)




The Icarus Account - Favorite Girl


Intro/Verse 1
e|--------------------------x----------x-----|
B|-----0----0---0---0----3--x---3---3--x--3--|
G|----0----0---0---0-----0--x---0---0--x--0--|   x2
D|---5----4---2---0---------x----------x-----|
A|---------------------3----x-----3----x-----|
E|--------------------------x----------x-----|


Boston never seemed to be
So lovely in the fall to me
Florida s not so cold
But distance just gets old

e|-------x----------------x----------------x--------x--------------|
B|----3--x-3---3---3---3--x-3---3---3---3--x-3---3--x-3---3---3----|
G|----0--x-0---0---0---0--x-0---0---0---0--x-0---0--x-0---0---0----|
D|-------x----------------x----------------x--------x--------------|
A|-------x----------------x-------2---3----x---3----x---3---3---3--|
E|--0----x---0---2---3----x---3------------x--------x--------------|
   Hey      Maybe.... Stay    Maybe...Lay  ..This..   Forever

^^^[This is the timing of the words with the guitar]^^^


And, Hey maybe we could stay
Maybe we could lay like this forever

          Cadd9             D
Don't you know she is my favorite girl
         G             Em7
I wanna run away for days with her
          Cadd9          D
And If you promise not to say a thing
           G                Em7
I'm gonna buy that girl a diamond ring

       C   D          G  D Em7
I said ooooo I think I love you
C   D             G D Em7
Ooooo I think I love you
  D    C
I love you

My favorite girl

[intro riff]

verse 2 riff
e|------------------------------x-------x-------x--------|
B|---0--0--0--0--0--0--0--0--3--x-3--3--x-3--3--x--3-----|
G|--0--0--0--0--0--0--0--0---0--x-0--0--x-0--0--x--0-----|  x2
D|-5--4--2--0--2--0-------------x-------x-------x--0-----|
A|-------------------3--2---3---x---2---x---3---x--------|
E|------------------------------x-------x-------x--------|


Its funny how love takes you by surprise
And I just didnt know what I was missin till you opened my eyes


     Em7         D       G
And hey maybe we could stay
        G/A   Cadd9
Maybe we could lay like this forever

          Cadd9             D
Don't you know she is my favorite girl
         G             Em7
I wanna run away for days with her
          Cadd9          D
And If you promise not to say a thing
           G                Em7
I'm gonna buy that girl a diamond ring

       C   D          G  D Em7
I said ooooo I think I love you
C   D             G D Em7
Ooooo I think I love you
  D    C
I love you
              C   D    G
My favorite girl

C    D    G
Ooooohhh
           C    D    G
Were in love love love
          C    D    G
Were in love love love
         C    D    Em   D    C
Were in love love love love love

            Cadd9             D
And does she know she is my favorite girl
         G             Em7
I wanna run away for days with her
          Cadd9          D
And If you promise not to say a thing
           G        D       Em7
I'm gonna buy that girl a diamond ring

       C   D          G  D Em7
I said ooooo I think I love you
C   D             G D Em7
Ooooo I think I love you


          Cadd9             D
Don't you know she is my favorite girl
         G             Em7
I wanna run away for days with her
          Cadd9          D
And If you promise not to say a thing
           G        D       Em7
I'm gonna buy that girl a diamond ring


       C   D          G  D Em7
I said ooooo I think I love you
C   D             G D Em7
Ooooo I think I love you
  D    C
I love you

My favorite girl

[intro riff 1x]
            
Submit corrections

↑ Back to top | Tablatures and chords for acoustic guitar and electric guitar, ukulele, drums are parodies/interpretations of the original songs. You may use it for private study, scholarship, research or language learning purposes only