Home » T » The Hush Sound »

The Hush Sound - We Intertwined Bass

Artists:  A B C D E F G H I J K L M N O P Q R S T U V W X Y Z # 

We Intertwined Bass

(ver. 3) Click to play this song!
The Hush Sound

Tuning:
Innocence was the key
G|----------------------------------------------------------------------------|
D|----------------------------------------------------------------------------|
A|-------------------------3-3-3-3-3-3-3-3----------------1-1-1-1-------------|
E|-3-----3-3-3-3-3-3-3-3----------------------4-4-4-4-------------------------|

G|----------------------------------------------------------------------------|
D|----------------------------------------------------------------------------|
A|------------1-1-1-1---------------------------------------------------------|
E|--3-3-3-3-------------------------------------------------------------------|
like vines, we intertwined
G|----------------------------------------------------------------------------|
D|----------------------------------------------------------------------------|
A|---------3-3-----------------------1-1-1-1-1-1-1-1--------------------------|
E|---3--3----------4-4-4-4-4-4-4-4--------------------------------------------|

G|---------------------------------------------------------------------------|
D|---------------------------------------------------------------------------|
A|---------3-3----------------------2-2-2-2-2-2-2-2-2/14~~~------------------|
E|--3-3-----------4-4-4-4-4-4-4-4--------------------------------------------|

G|----------------------------------------------------------------------------| X2
D|----------------------------------------------------------------------------|
A|--------2~~~2--3~~~~3-----------------3~~~~3----------3-3-3-----------------|
E|--3~~3-----------------4-4-4--0~~~~0----------0~~~~0------------------------|
~~~~~~~~~~~~ repeat Verse~~~~~~~~~~~~~~~~

G|----------------------------------------------------------------------------|
D|-----------2-2-2-2----------------------------------------------------------|
A|--3-3-3-3-----------4-4-4-4-------------------------------------------------|
E|-----------------------------3--3--3-3--------------------------------------|x4

~~~~~~~~~~~~~~~~~reapeat chorus~~~~~~~~~~~~~~~~~~~~~~~`

and call it a night
            
Submit corrections

↑ Back to top | Tablatures and chords for acoustic guitar and electric guitar, ukulele, drums are parodies/interpretations of the original songs. You may use it for private study, scholarship, research or language learning purposes only