Home » T » The Hush Sound »

The Hush Sound - We Intertwined Bass

Artists:  A B C D E F G H I J K L M N O P Q R S T U V W X Y Z # 

We Intertwined Bass

(ver. 2) Click to play this song!
The Hush Sound
WE INTERTWINED
Hush Sound Bass Tab
Tuning: Standard

------------------
VERSE 1 (Ab Major)
------------------
              Innocence...                  free...     Until...
G -------------------------------------------------------------|
D -6h8----6-6-6-6--5-5-6-5-3-3-3-3--3-3--3-1-------------------|
A -----6----------6----------------3----3----4-4-4-4-6-6-6-----|
E -------------------------------------------------------------|

      turned...
G ----------------------|
D --5-6-6-6-6-------5-6-|
A -6----------6-6-8-----|
E ----------------------|

------------------
PRE-CHORUS
------------------
   Like...  intertwined...     carelessly...           Life...
G ---------------------------------------------------|---------|
D -6--6--5--5----3-3-3-3--3-3--3--1----------------5-|-6--6--5-|
A -----------------------3----3--3--4-4-4-4-6-6-6-6--|---------|
E ---------------------------------------------------|---------|

   on...            It...heavenly...  so gooooooood.......
G -------------------------------------------------------------|
D -5--3-3-3-3--3-3--3--1---------------6/11-11-11-11-11-11-11\-|
A ------------3----3--3--4-4-4-4-4-4-4-------------------------|
E -------------------------------------------------------------|

------------------
CHORUS 1
------------------
   I...   and...  a -lone... I...just..a-sleep...
G -------------------------------------------------------------|
D -------------3-3-6-------------------4-6-6\------------------|
A -------3-3-6---------------4-4-6-7-7-------------------------|
E -4-4-6-------------4-4-4---------------------0-2-------------|

   Right...belo- o-o ng...   Inside...   song...
G -------------------------------------------------------------|
D -------------3-3-6-------------------4-6---------------------|
A -------3-3-6---------------4-4-6-7-7-------------------------|
E -4-4-6-------------4-4-4-------------------------------------|

------------------
VERSE 2
------------------
 I knew...  dream...         true...   Coincidences...
G -------------------------------------------------------------|
D -6-6-6-6--5-5-6-5-3-3-3-3--3-3--3--1---------------5-6-6-6---|
A ---------6----------------3----3--3--4-4-4-4-6-6-6----------6|
E -----------------------------------------------------------6-|

            Who...   who...  who...  place...  don't...    so...
G -------------------------------------------------------------|
D ----------6-6-6-6--5-5-6-5-3-3-3-3--3-3--3--1----------------|
A -6-6-6-6----------6----------------3----3--3--4-4-4-4-6-6-6--|
E -------------------------------------------------------------|

    sleeping...
G --------------------|
D -5-6-6-6-6-6------5-|
A ------------6-6-8---|
E --------------------|

PRE-CHORUS (same as before)

------------------
CHORUS 2
------------------
   I...   and...  a -lone... I...just..a-sleep...
G -------------------------------------------------------------|
D -------------3-3-6-------------------4-6-6\------------------|
A -------3-3-6---------------4-4-6-7-7-------------------------|
E -4-4-6-------------4-4-4---------------------0-2-------------|

   Right...belo- o-o ng...   Inside... song...
G -------------------------------------------------------------|
D -------------3-3-6-------------------------------------------|
A -------3-3-6---------------4-4-6-7-7-------------------------|
E -4-4-6-------------4-4-4-------------8-8-8-8-8---------------|

------------------
BRIDGE (f minor)
------------------
                                   Inside.somewhere...    some..
G -------------------------|    G -----------------------------|
D -------------------------|    D ----------------------6/11(x5)
A -------1--1--4--4--------| x5 A -----1-1-4-4-4-4-4-4-4-------|
E -1--1--------------4--4--|    E -1-1-------------------------|

------------------
CHORUS 3 (back to Ab major)
------------------
   I...   and...  a -lone... I...just..a-sleep...
G -------------------------------------------------------------|
D -------------3-3-6-------------------4-6-6-6-5---------------|
A -------3-3-6---------------4-4-6-7-7-----------8-6-----------|
E -4-4-6-------------4-4-4-------------------------------------|

(Syncopated plucking here... listen closely to the song)

   Right...  belo- o-o  ng... Inside...sad.song...
G -------------------------------------------------------8-5---|
D ---------------3-3-33------------------4-6-6---------6-----6-|
A --------3-3-33---------------4-4-6-7-7-----------------------|
E -4-4-44---------------4-4-44---------------------------------|

------------------
CHORUS 4
------------------
   I...wake... and.feel.a-lone... I...just..a-sleep...
G ---------------------------------------------------8-5-------|
D ---------------1-3-1-3-6*----------------------4-6-----6-5-6-|
A -------2-3-2-3-------------------4---4-5-7---7---------------|
E -4-3-4------------------4-6-8-4----4-------7-----------------|

       Right...  be- e-loo-o-ong... inside...              song!
G -------------------------------------------------------------|
D -3-6---------------1-3-1-3-6*--------------------------------|
A -----------2-3-2-3------------------4---4-5-7------9**---11\-|
E -----4-3-4------------------4-6-8-4---4----------------------|
 
*This octave comes very quickly so watch out for it
** Wait for it!!! Wait for it!!!!!!
            
Submit corrections

↑ Back to top | Tablatures and chords for acoustic guitar and electric guitar, ukulele, drums are parodies/interpretations of the original songs. You may use it for private study, scholarship, research or language learning purposes only