» » »

The Hush Sound - We Intertwined Tabs

Artists:  A B C D E F G H I J K L M N O P Q R S T U V W X Y Z # 

We Intertwined Tabs

(ver. 1) Click to play this song!
The Hush Sound
 Rating:
4/5 (4 votes)

 We Intertwined lessons Tabs too difficult? Try these video lessons and learn fast
 
                
In a field outside of town we could always be alone
|------------------------------------------------------|
|------------------------------------------------------|
|----------------------------7-7-7-7--5-5-5-5----------|
|--9-9-9-9-9-9-9-9--7-7-7-7--7-7-7-7--5-5-5-5----------|
|--9-9-9-9-9-9-9-9--7-7-7-7--5-5-5-5--3-3-3-3----------|
|--7-7-7-7-7-7-7-7--5-5-5-5----------------------------|


Carry a blanket maybe a basket - and that's it
|---------------------------------------------------------|
|---------------------------------------------------------|
|------------------7-7-7-7-7-7-7-7------------------------|
|-7-7-7-7-7-7-7-7--7-7-7-7-7-7-7-7----9-9-----------------|
|-7-7-7-7-7-7-7-7--5-5-5-5-5-5-5-5----9-9-----------------|
|-5-5-5-5-5-5-5-5---------------------7-7-----------------|

Innocence was the key I was locked up never free
|--------------------------------------------------------------|
|--------------------------------------------------------------|
|------------------5-5-5-5--9-9-9-9--5-5-5-5-------------------|
|-9-9-9-9-9-9-9-9--5-5-5-5--9-9-9-9--5-5-5-5-------------------|
|-9-9-9-9-9-9-9-9--3-3-3-3--7-7-7-7--3-3-3-3-------------------|
|-7-7-7-7-7-7-7-7----------------------------------------------|

Until you turned me
|----------------------------------------------|
|----------------------------------------------|
|----------7-7-7-7-----------------------------|
|-9-9-9-9--7-7-7-7-----------------------------|
|-9-9-9-9--5-5-5-5-----------------------------|
|-7-7-7-7--------------------------------------|

BRIDGE
Like vines we intertwined (like vines we intertwined)
Carelessly growing up and growing old
Life was on our tongues (on our tongues)
And it tasted heavenly so good

|-------------------------|---------------------------------|
|-------------------------|---------------------------------|
|----------7--5-5-5-5-5----|-9-9-9-9-9-9-9-9--5-------------|
|-9--7--5--7--5-5-5-5-5----|-9-9-9-9-9-9-9-9--5-------------|  x2
|-9--7--5--5--3-3-3-3-3----|-7-7-7-7-7-7-7-7--3-------------|
|-7--5--3------------------|--------------------------------|

CHORUS
I wake up and I feel alone
I was just asleep


|----------------------------------------------------------|
|----------------------------------------------------------|
|--5-5-5-5------------7-7-7-7------------------------------|
|--5-5-5-5--9-9-9-9---7-7-7-7--7-7-7-7--9-9-9-9------------|
|--3-3-3-3--9-9-9-9---5-5-5-5--7-7-7-7--9-9-9-9------------|
|-----------7-7-7-7------------5-5-5-5--7-7-7-7------------|

Right where I belong
Inside this sad, sad song

|---------------------------------------------------------------------|
|---------------------------------------------------------------------|
|-------------------9-9-9-9--5-5-5-5---7-7-7-7--5---------------------|
|-9-9-9-9--7-7-7-7--9-9-9-9--5-5-5-5---7-7-7-7--5--7--5---------------|
|-9-9-9-9--7-7-7-7--7-7-7-7--3-3-3-3---5-5-5-5--3--7--5---------------|
|-7-7-7-7--5-5-5-5---------------------------------5--3---------------|
            
Submit corrections


        We Intertwined lessons Hard to play? Try these video lessons and learn fast We Intertwined lessons
        
↑ Back to top | Tablatures and chords for acoustic guitar and electric guitar, ukulele, drums are parodies/interpretations of the original songs. You may use it for private study, scholarship, research or language learning purposes only