» » »

The Hush Sound - Sweet Tangerine Tabs

Artists:  A B C D E F G H I J K L M N O P Q R S T U V W X Y Z # 

Sweet Tangerine Tabs

(ver. 2) Click to play this song!
The Hush Sound
 Rating:
4/5 (4 votes)

 Sweet Tangerine lessons Tabs too difficult? Try these video lessons and learn fast
 
                This is a very catchy song by Illinois's very own The Hush Sound and I'm surprised
has tabbed it yet! this song is fairly easy, I figured out most of the chords last night and
some minor adjustments this morning. I suggest you listen to the song to keep up with 
stroking and when the chords are played (and because my chords are probably wrong), plus
will make life much much easier. Enjoy! :)


Verse 1
e|  |------------------------------------------------------------|
b|  |------------------------------------------------------------|
G|  |-------------------------------4-------4--------------------|
D|  |-------2-----2-----------------4---2---4---2----------------|(x2)
A|  |-------2-----2-----------------2---2---2---2----------------|
E|  |-------0-----0---------------------0-------0----------------|
        Rain falls quickly wetting my hair and clothes
         My cries fall upon her deaf ears, more tears

e|  |------------------------------------------------------------|
b|  |------------------------------------------------------------|
G|  |------------------------------------------------------------|
D|  |-------------------BASS-------------------------------------|
A|  |------------------------------------------------------------|
E|  |------------------------------------------------------------|
                 Let me in, please it's cold I'm

e|  |------------------------------------------------------------|
b|  |------------------------------------------------------------|
G|  |-------------------------4------------------4---------------|
D|  |-------------------------2-2----------------2-2-------------|
A|  |-------------------------2-2----------------2-2-------------|
E|  |---------------------------0------------------0-------------|
             freezing out here. I miss you, my dear

e|  |------------------------------------------------------------|
b|  |------------------------------------------------------------|
G|  |------------------------------------------------------------|
D|  |-------------------BASS-------------------------------------|
A|  |------------------------------------------------------------|
E|  |------------------------------------------------------------|
               You're all his,  and I'm all yours,

e|  |------------------------------------------------------------|
b|  |------------------------------------------------------------|
G|  |-------------------------4------------------4---------------|
D|  |-------------------------2-2----------------2-2-------------|
A|  |-------------------------2-2----------------2-2-------------|
E|  |---------------------------0------------------0-------------|
                   like it or not, I'm all you've got

Pre-Chorus
e|  |------------------------------0-----------------------------|
b|  |------------------------------0-----------------------------|
G|  |------------------------------0-----------------------------|
D|  |----------------PIANO---------2-----------------------------|
A|  |------------------------------2-(8 strokes)-----------------|
E|  |------------------------------0-----------------------------|
              Everyone will make mistakes

e|  |----------------------------------0--------------------------|
b|  |----------------------------------0--------------------------|
G|  |----------------------------------0--------------4-2---------|
D|  |----------------PIANO-------------2-(4 strokes)--4-2-5-4-----|
A|  |----------------------------------2--------------2-0-5-4-----|
E|  |----------------------------------0------------------3-2-----|
       Without the sour the sweet just ain't as

Chorus
e|  |------------------------------------------------------------|
b|  |------------------------------------------------------------|
G|  |----------5-------------------------4-----------------------|
D|  |----------5----------5--------------4-----------------2-----|
A|  |----------3----------5--------------2-----------------2-----|
E|  |---------------------3--------------------------------0-----|
             Sweet tangerine, will you please come back to me?

e|  |------------------------------------------------------------|
b|  |------------------------------------------------------------|
G|  |---------4--5-----------------------------------4-----------|
D|  |---------4--5---------------------5-------------4-----------|
A|  |---------2--3---------------------5-------------2-----------|
E|  |----------------------------------3-------------------------|
        Cause I don't think that these feelings are gonna leave

Verse 2
Light cuts through the clouds and haunts me, like bad dreams
Outside looking in I'm feeling lost and cold as sin
A shred of hope a little bit of sweetness,
anything please, except for defeat
If I could I'd lock you up and toss out the key, it's just you and me

Pre-Chorus
e|  |------------------------------0-----------------------------|
b|  |------------------------------0-----------------------------|
G|  |------------------------------0-----------------------------|
D|  |----------------BASS----------2-----------------------------|
A|  |------------------------------2-(8 strokes)-----------------|
E|  |------------------------------0-----------------------------|
           Everyone will make mistakes (and I know I have)

e|  |---------------------------------------0--------------------|
b|  |---------------------------------------0--------------------|
G|  |-----0--0--0--0----2--2--2--2----------0--------4-2---------|
D|  |-----0--0--0--0----2--2--2--2----------2--------4-2-5-4-----|
A|  |-----1--1--1--1----0--0--0--0----------2--------2-0-5-4-----|
E|  |---------------------------------------0------------3-2-----|
          Without the sour the sweet just ain't as

Chorus
e|  |------------------------------------------------------------|
b|  |------------------------------------------------------------|
G|  |----------5-------------------------4-----------------------|
D|  |----------5----------5--------------4-----------------2-----|
A|  |----------3----------5--------------2-----------------2-----|
E|  |---------------------3--------------------------------0-----|
             Sweet tangerine, will you please come back to me?

e|  |------------------------------------------------------------|
b|  |------------------------------------------------------------|
G|  |---------4--5-----------------------------------4-----------|
D|  |---------4--5---------------------5-------------4-----------|
A|  |---------2--3---------------------5-------------2-----------|
E|  |----------------------------------3-------------------------|
        Cause I don't think that these feelings are gonna leave (yeah)

e|  |------------------------------------------------------------|
b|  |--------------(stroke each 4 times)-------------------------|
G|  |----------5-----------------------4-------------------------|
D|  |----------5--------5--------------4-----------------2-------|
A|  |----------3--------5--------------2-----------------2-------|
E|  |-------------------3--------------------------------0-------|
              Sweet melody, you'll be singing in your sleep

e|  |------------------------------------------------------------|
b|  |------------------------------------------------------------|
G|  |-------5-----------------------------------4----------------|
D|  |-------5-(4 strokes)---------5-------------4-(8 strokes)----|
A|  |-------3---------------------5-(4 strokes)-2----------------|
E|  |-----------------------------3------------------------------|
       But this time you're not listening to a word I say

Bridge
e|  |------------------------------------------------------------|
b|  |------------------------------------------------------------|
G|  |------------------------------------------------------------|
D|  |-------------------BASS SOLO--------------------------------|
A|  |------------------------------------------------------------|
E|  |------------------------------------------------------------|
          Crept through the curtains, as quick as the cold wind
                Slowly exploring the room where you sleep
         The stare of your portrait, the passing of your scent

e|  |------------------------------------------------------------|
b|  |------------------------------------------------------------|
G|  |---------------------------------------------2-3-4----------|
D|  |---------------------------------------------2-3-4----------|
A|  |---------------------------------------------0-1-2----------|
E|  |------------------------------------------------------------|
                  Left me no choice but to stay

e|  |------------------------------------------------------------|
b|  |------------------------------------------------------------|
G|  |---------------------------------------------2-3-4----------|
D|  |------2--(stroke as necessary)---------------2-3-4----------|
A|  |------2--------------------------------------0-1-2----------|
E|  |------0-----------------------------------------------------|
              I will dissolve into the dark beneath your bed

e|  |------------------------------------------------------------|
b|  |------------------------------------------------------------|
G|  |------------------------------------------------4-2---------|
D|  |------2--(stroke as necessary)------------------4-2-5-2-----|
A|  |------2-----------------------------------------2-0-5-2-----|
E|  |------0---------------------------------------------3-0-----|
              My hands will wait for a taste of your skin

End Chorus
e|  |------------------------------------------------------------|
b|  |---------(stroke each 4 times)------------------------------|
G|  |----------------------------------4-------------------------|
D|  |----------------------------------4-----------------2-------|
A|  |----------------------------------2-----------------2-------|
E|  |----------------------------------------------------0-------|
          Sweet tangerine, will you please come back to me?

e|  |------------------------------------------------------------|
b|  |--------------(stroke each 4 times)-------------------------|
G|  |-----------5------------------------------------4-----------|
D|  |-----------5----------------------5-------------4-----------|
A|  |-----------3----------------------5-------------2-----------|
E|  |----------------------------------3-------------------------|
     Cause I don't think that these feelings are gonna leave (yeah, yeah)

e|  |------------------------------------------------------------|
b|  |--------------(stroke each 4 times)-------------------------|
G|  |----------5-----------------------4-------------------------|
D|  |----------5--------5--------------4-----------------2-------|
A|  |----------3--------5--------------2-----------------2-------|
E|  |-------------------3--------------------------------0-------|
              Sweet melody, you'll be singing in your sleep

e|  |------------------------------------------------------------|
b|  |------------------------------------------------------------|
G|  |-------5-----------------------------------4----------------|
D|  |-------5-(4 strokes)---------5-------------4-(8 strokes)----|
A|  |-------3---------------------5-(4 strokes)-2----------------|
E|  |-----------------------------3------------------------------|
       But this time you're not listening to a word I say


e|  |------------------------------------------------------------|
b|  |------------------------------------------------------------|
G|  |---------4---------------------------4-2--------------------|
D|  |---------4-(stroke as necessary)-----4-2-5-4--------2-------|
A|  |---------2---------------------------2-0-5-4--------2-------|
E|  |-----------------------------------------3-2--------0-------|
                             A word I say              ...ay
            
Submit corrections


        Sweet Tangerine lessons Hard to play? Try these video lessons and learn fast Sweet Tangerine lessons
        
↑ Back to top | Tablatures and chords for acoustic guitar and electric guitar, ukulele, drums are parodies/interpretations of the original songs. You may use it for private study, scholarship, research or language learning purposes only