» » »

The Hush Sound - Sweet Tangerine Bass

Artists:  A B C D E F G H I J K L M N O P Q R S T U V W X Y Z # 

Sweet Tangerine Bass

(ver. 1) Click to play this song!
The Hush Sound
 Rating:
3.8/5 (5 votes)

 Sweet Tangerine lessons Tabs too difficult? Try these video lessons and learn fast
 
                -------------------------------------------------------------------------------
-------------------------------------------------------------------------------


Tuning:

Verse x2 (:13)
G|---------------------------------------------------------------------------|
D|---------------------------------------------------------------------------|
A|---77-66-3335--22----22----------------------------------------------------|
E|-----------------00----00--------------------------------------------------|

Pre Chorus (:27)
G|---------------------------------------------------------------------------|
D|------------------------------5--------------------------------------------|
A|--------------77-5-77-5-77-5-7-75-------------77-5-77-5-7-5-3-2------------|
E|---3333-5555------------------------3333-5555------------------------------|

Chorus (:40)
G|---------------------------------------------------------------------------|
D|------------------------------9999-----------------------------------------|
A|---3-----------75-3--------------------------------------------------------|
E|-----3-357-00-7-----3-357777-----------------------------------------------|

Verse x2 (:53)
G|---------------------------------------------------------------------------|
D|--------7-9-10-------------------------------------------------------------|
A|---7-10-------10-7-10--9-----9---------------------------------------------|
E|----------------8-----7--00-7--00------------------------------------------|

(1:07)
G|---------------------------------------------------------------------------|
D|---------------------------------------------------------------------------|
A|---77-66-3335--22----22----------------------------------------------------|
E|-----------------00----00--------------------------------------------------|

(1:15)
G|---------------------------------------------------------------------------|
D|--------7-9-10-------------------------------------------------------------|
A|---7-10-------10-7-10--9-----9---------------------------------------------|
E|----------------8-----7--00-7--00------------------------------------------|

Pre Chorus (1:21)
G|------------------------------------------------79-------------------------|
D|------------------------------5----------------9---------------------------|
A|--------------77-5-77-5-77-5-7-75-------------7----7-5-3-2-----------------|
E|---3333-5555------------------------3333-5555------------------------------|

Chorus (1:34)
G|---------------------------------------------------------------------------|
D|------------------------------9-7------------------------------------------|
A|---3-----------75-3--------------10-9--------------------------------------|
E|-----3-357-00-7-----3-357777-----------------------------------------------|

(1:48)
G|---------------------------------------------------------------------------|
D|----------------------------------------9999-------------------------------|
A|---3333---------------75-3333----------------------------------------------|
E|--------3335-7777-00-7--------3335-7777------------------------------------|

Bridge (2:01)
G|------77----------77----------77--------77---------------------------------|
D|-----9-----------9-----------9---------9-----------------------------------|
A|---77----------77----------77--------77------------------------------------|
E|--------33-55-------33-55------33-55------3-567----------------------------|

(2:14)
G|---------------------------------------------------------------------------|
D|------------------5-------------------------------5------------9-7---------|
A|---77-5-77-5-77-57-75-77-5-77-57---77-5-77-5-77-57-75-77-5-77-5---10-7-----|
E|--------------------------------567----------------------------------------|

Chorus (2:31)
G|---------------------------------------------------------------------------|
D|---------------------------------------------------------------------------|
A|------------75-3333----------9-7-------------------------------------------|
E|---7777-00-7--------3335-7777---10-7---------------------------------------|

(2:42)
G|---------------------------------------4444--------------------------------|
D|-----24--------------------24----------------------------------------------|
A|---35-----2--20------75--35-----2--2222----2222-20-------------------------|
E|--------35-3---32-007---------35-3----------------320----------------------|


| /  slide up
| \  slide down
| h  hammer-on
| p  pull-off
| ~  vibrato
| +  harmonic
| x  Mute note
===============================================================================
            
Submit corrections


        Sweet Tangerine lessons Hard to play? Try these video lessons and learn fast Sweet Tangerine lessons
        
↑ Back to top | Tablatures and chords for acoustic guitar and electric guitar, ukulele, drums are parodies/interpretations of the original songs. You may use it for private study, scholarship, research or language learning purposes only