» » »

The Growlers - Tell It How It Is Tabs

Artists:  A B C D E F G H I J K L M N O P Q R S T U V W X Y Z # 

Tell It How It Is Tabs

(ver. 2) Click to play this song!
The Growlers
 Rating:
3/5 (20 votes)

 Tell It How It Is  lessons Tabs too difficult? Try these video lessons and learn fast
 
                Tuning: Standard


Intro:            ____3x_______|                                            ||
e|-----------------------------|--------------------------------------------||
B|-----------------------------|--------------------------------------------||
G|-------9-9-9----------------°|--------------------------------------------||
D|--9h11-------9h11(p9)-------°|--------------------------------------------||
A|--------------------11--11---|--9h11-7-----7s11-11--9h11-7-----9-7-(7)----||
E|-----------------------------|---------9-9-----------------9-9------------||


Bridge:                            
e|--------------------------------------------------------||
B|--------------------------------------------------------||
G|--------------------------------------------------------||
D|-------------6~--6-6----9~--9-7h9p7---------------------||
A|-----7---7h9------9-9-7-------------9-7~--7---7---------||
E|-7s9---9------------------------------------9---9-9-7~--||
        
!Play around with parts for variation!

           
Chorus(listen song for pattern):
e|----X------(X)-X-----X-----X-----------||
B|----14-----(7)-9-----6-----9-----------||
G|----14-----(7)-9-----6-----9-----------||
D|----14-----(7)-9-----6-----9-----------||
A|----12-----(5)-7-----4-----7-----------||
E|----X------(X)-X-----X-----X-----------||
      A      (D) E     C#    E


 Song:
-------
3x Intro
2x Bridge, then End with chord:

              e|----X------------||
              B|----9------------||
              G|----9------------|| Listen song for rhythm and pattern
              D|----9------------||
              A|----7------------||
              E|----X------------||
                    E
2x Intro
2x Bridge
2x Chorus
2x Intro
2x Bridge
2x Chorus, then End with chord:

              e|----X------------||
              B|----9------------||
              G|----9------------|| Listen song for rhythm and pattern
              D|----9------------||
              A|----7------------||
              E|----X------------||
                    E  

            
Submit corrections


        Tell It How It Is  lessons Hard to play? Try these video lessons and learn fast Tell It How It Is  lessons
        
↑ Back to top | Tablatures and chords for acoustic guitar and electric guitar, ukulele, drums are parodies/interpretations of the original songs. You may use it for private study, scholarship, research or language learning purposes only