» » »

The Growlers - Tell It How It Is Tabs

Artists:  A B C D E F G H I J K L M N O P Q R S T U V W X Y Z # 

Tell It How It Is Tabs

(ver. 1) Click to play this song!
The Growlers
 Rating:
4/5 (4 votes)

 Tell It How It Is  lessons Tabs too difficult? Try these video lessons and learn fast
 
                Tuning:standard

e|---------------------------------------------------------------------------|
B|---------------------------------------------------------------------------|
G|---------9--9--9-------------(x3)--Then------------------------------------|
D|---9--11--------9h11p9-----------------------------------------------------|
A|-----------------------11--11-----------9--11--7--------7/11---------------|
E|--------------------------------------------------9--9---------------------|

e|---------------------------------------------------------------------------|
B|---------------------------------------------------------------------------|
G|---------------------------------------------------------------------------|
D|---------------------------------------------------------------------------|
A|--9--11--7--------9--7-----------------------------------------------------|
E|------------9--9-----------------------------------------------------------|            
Submit corrections


        Tell It How It Is  lessons Hard to play? Try these video lessons and learn fast Tell It How It Is  lessons
        
↑ Back to top | Tablatures and chords for acoustic guitar and electric guitar, ukulele, drums are parodies/interpretations of the original songs. You may use it for private study, scholarship, research or language learning purposes only