» » »

The Growlers - One Million Lovers Bass

Artists:  A B C D E F G H I J K L M N O P Q R S T U V W X Y Z # 

One Million Lovers Bass

(ver. 1) Click to play this song!
The Growlers
 Rating:
4/5 (4 votes)

 One Million Lovers lessons Tabs too difficult? Try these video lessons and learn fast
 
                Here's another Growlers song, this one took me for-freaking-ever to figure out, and I'm 
only 90% sure it's correct but I figure I'd tab it out anyways since it's not on here. 
I'm sure the more I jam it the more I'll perfect it so I'll add to it in the future.
Cheers!
-Tango215
____________________________________________________________________________

VERSE three times

G|--------------------------------------------------|
D|--------3-6---------------------------------------|
A|--4---4-----4---4-4s6-4--1-----1-----1-----1------|
E|----4---------4------------1-4---1-4---1-4---1-4--|

The last time is slightly different.

G|--------------------------------------------------|
D|--------3-6---------33----------------------------|
A|--4---4-----4---4s6----4---1-----1-----1-----1----|
E|----4---------4--------------1-4---1-4---1-4---1--| Slide into chorus.

CHORUS 4 times

G|--------------------------|
D|--------------------------|
A|-----33-44-66--1-----1----|
E|--44-------------1-4---1--| Slide at the end each time into the beginning.

The last time of this riff is also played slightly different.

G|----------------------|
D|----------------------|
A|-----33-44-66--1------|
E|--44-------------1-4--| Yep.

The second verse is played 4 times with the variation of the riff still at the end.

The second chorus is played 8 times.

Third verse same as the first!

Third chorus 4 times.

Then the verse riff 3 times without the variation.

BRIDGE

G|--------------------------------------------------------------------------|
D|--------3-6-------3-6-------------8-8-8-------------6-------6-------------|
A|--4---4-----4---4-----6-6-6-6h8-6----------4-6s8-6h8----6-6h8--4---4----4-|
E|----4---------4-------------------------4h6----------------------4---4h6--|

G|-------------------------------------------------------------------------|
D|-------3-6-------3-6-------------8-8-8--------------6------6-------------|
A|-4---4-----4---4-----6-6-6-6h8-6-----------4-6s8-6h8--6-6h8---4-4-4----4-|
E|---4---------4-------------------------4h6--------------------------4h6--|

G|---------------------------------------------------------------------------|
D|-----------------------------------6-8-8-8--------------6------6-----------|
A|-4-4-4-----4-4---4-----4-6-6-6-6h8-------------4-6s8-6h8--6-6h8--4-4-4---4-|
E|-------4h6-----4---4h6---------------------4h6------------------------4h6--|

G|------------------------------------------------|
D|--------3-6-------------------------------------|
A|--4---4-----4---4-4s6-4--1----1------1-----1-1--|
E|----4---------4------------1-4---1-4---1-4------|

OUTRO

G|--------------------------------------------------------------------------|
D|---------------------------------6-------6-8-8-8-6------------------8-8-8-|
A|--6-6-6-6h8-6-----------4-6s8-6h8---6-6h8-----------8-4-6-6-6-6h8-6-------|
E|--------------6-6-6-4h6---------------------------------------------------|

G|-------------------------|
D|--------------6-----6----|
A|-----4-6s8-6h8---6-6--4~-|
E|-4h6---------------------|

And that's it!
            
Submit corrections


        One Million Lovers lessons Hard to play? Try these video lessons and learn fast One Million Lovers lessons
        
↑ Back to top | Tablatures and chords for acoustic guitar and electric guitar, ukulele, drums are parodies/interpretations of the original songs. You may use it for private study, scholarship, research or language learning purposes only