» » »

The Fray - How To Save A Life Tabs

Artists:  A B C D E F G H I J K L M N O P Q R S T U V W X Y Z # 

How To Save A Life Tabs

(ver. 1) Click to play this song!
The Fray
 Rating:
4.4/5 (7 votes)

 How To Save A Life lessons Tabs too difficult? Try these video lessons and learn fast
 
                [Chorus]
    she beg-ins to won-der  why    you came....   where   did   i    go    wrong? 
e|---0------0----3p0---------------------------|*|--------------------------------|
B|---3---3------------3--(3)p0----------1------|W|--1-----------------1-----------|
G|---0-------------0--0------------------------|A|--2-----{12}--------2-----------|
D|------------2-------0--0------0--{12}--------|I|--0--0-------{12}---3-----{12}--|
A|---3----------------2------2-----------------|T|--0---------------0-0-0---------|
E|---------------------------------------------|*|--------------------------------|

            I lost    a friend       some-where  a--a--long    the bit-er-nes,and 
e|--------------0----------------------------------------------------------------|
B|----------------------0h1-----------------------1h3----3~-----3/4--4p3--3~~~p1-|
G|------0----------------------------{12}---------2------0-----------0----0--0---|
D|--------{12}-------0------------2--------{12}---2------0----0-----------0----0-|
A|---2-------------2------------0-----------------0------2~-2--------2-----------|
E|-------------------------------------------------------------------------------|

     i   would have  stayed up      with you      all night....  had    I   known
e|-------------------------------------------------------------------------------|
B|---1-----------------1--------------1/5------------------------------------1---|
G|---2----{12}---------2-----------------------0-------5---------{12}--------2---|
D|---0--0------{12}----3----{12}---0---------0------------------------{12}---2---|
A|---0---------------0-0-0-------2-------------------------0h7---------------0---|
E|------------------------------------------------[7]----------------------------|

    How  to  save    a life           (chorus outro - optional)
e|--------------------------|-------5p0--3-----1----0----1-----0------|
B|---1----1-----------0h1---|------------1----------1----------1/8~~--|
G|---0----------------------|------------0----------0----------0------|
D|---2--2----{12}---0-------|-----2------2----------0----------0------|
A|---3------------2---------|---0-----0-----0----0-----0----0---------|
E|--------------------------|-----------------------------------------|            
Submit corrections


        How To Save A Life lessons Hard to play? Try these video lessons and learn fast How To Save A Life lessons
        
↑ Back to top | Tablatures and chords for acoustic guitar and electric guitar, ukulele, drums are parodies/interpretations of the original songs. You may use it for private study, scholarship, research or language learning purposes only