Home » T » The Devil Wears Prada »

The Devil Wears Prada - Martyrs Tabs

Artists:  A B C D E F G H I J K L M N O P Q R S T U V W X Y Z # 

Martyrs Tabs

(ver. 1) Click to play this song!
The Devil Wears Prada
 [intro]    [verse]                                                      [break]
    bells                                                          2xs
b |-------||-----------------------------|-----------------------------||----------------------------|
F#|-------||-----------------------------|-----------------------------||----------------------------|
D |-------||:----------------------------|----------------------------:||----------------------------|
A |-------||-----------------------------|-----------------------------||----------------------------|
E |-------||---------------------1-3-1-3-|--------------------1-3-1-3--||-0-0----0-0----0-0----0-0-0-|
A |-------||--0-1-3-1b-0-1-3-1-1---3-1-3-|-0-1-3-1b-0-1-3-1-1---3-1-3--||-0-0----0-0----0-0----0-0-0-|
 
 
 
b |------5------------|------------|-----------------------------|-----------------|-------------|
F#|-------5-----------|------------|-----------------------------|-----------------|-------------|
D |--------5----------|------------|-----------------------------|-----------------|-------------|
A |---------5---------|------------|-----------------------------|-----------------|-------------|
E |-0-0------5-0-0----|-0-0----12\-|--------------------1-3-1-3--|-----------------|-------------|
A |-0-0---------0-0---|-0-0----12\-|-0-1-3-1b-0-1-3-1-1---3-1-3--|-0-1-3-1b-0-1-3/-|-13v---13v---|
 
 
gtr1
b |---------------------|---------------------------|------|--------------------------|-----|----------------|
F#|---------------------|---------------------------|------|--------------------------|-----|----------------|
D |---------------------|---------------------------|------|--------------------------|-----|----------------|
A |---------------------|---------------------------|------|--------------------------|-----|----------------|
E |---------------------|---------------------------|------|--------------------------|-----|-0-0-0-0-0-0-0--|
A |-13-12-0-0-16-13-0-0-|-13-12-0-0-16-13-0-0-0-----|------|-13-12-0-0-16-13-0-0-0----|-----|-0-0-0-0-0-0-0--|
 
 gtr2                                                             3xs
b |-----------------------------------------|-------------------------||---------------------------------|
F#|-----------------------------------------|-------------------------||---------------------------------|
D |:----------------------------------------|------------------------:||---------------------------------|
A |-----------------------------------------|-------------------------||-8-8-8-8-8-8-8-8-8-8-8-8-8-8-8-8-|
E |-----------------------------------------|-------------------------||---------------------------------|
A |-13-12-0-0-16-13-0-0-13-12-0-0-16-13-0-0-|-13-12-0-0-16-13-0-------||---------------------------------|
 
 
 
                                              "LONELY!!"
b |-----------------------------------------||-----------------|------------------|------------------|
F#|-----------------------------------------||-----------------|------------------|------------------|
D |-----------------------------------------||-7-7-7-7-7-7-7-7-|-9-9-9-9-9-9-12-9-|-10-9-7-----------|
A |-8-8-8-8-8-8-8-8-10-10-10-10-10-10-10-10-||-----------------|------------------|--------0---7-7-7-|
E |-----------------------------------------||-----------------|------------------|------------------|
A |-----------------------------------------||-----------------|------------------|------------------|
                                             "LONELY!!"
                                         gtr2
                                          b |------------------|----------------|------------------|
                                          F#|------------------|----------------|------------------|
                                          D |------------------|----------------|------------------|
                                          A |------------------|----------------|------------------|
                                          E |--8----8----8-----|------------8---|--8---------------|
                                          A |--8----8----8-----|------------8---|--8---------------|
 
 
 
 
gtr1
b |-----------------|-----------------|-----------------|-------------------|-------------------------|
F#|-----------------|-----------------|-----------------|-------------------|-------------------13/15-|
D |-----------------|-7-7-7-----------|-----------------|-7-7-7-9-9-9-10-10-|-10/14-14-14-14-14-------|
A |-5-5-5-7-7-7-7-7-|-------8-8-8-7-7-|-7-7-7-7-7-7-7-8-|-------------------|-------------------------|
E |-----------------|-----------------|-----------------|-------------------|-------------------------|
A |-----------------|-----------------|-----------------|-------------------|-------------------------|
 
gtr2
b |----------------|------------------|-----------------|-----------------|---------------------|
F#|----------------|------------------|-----------------|-----------------|---------------------|
D |----------------|------------------|-----------------|-----------------|---------------------|
A |----------------|------------------|-----------------|-----------------|---------------------|
E |--8---8---8--8--|---5----5----5----|--------------5--|-5---5---5---5---|-5--5--5--5--5-------|
A |--8---8---8--8--|---5----5----5----|--------------5--|-5---5---5---5---|-5--5--5--5--5-------|
 
 
 
CHORUS
gtr1                                                                                                  4xs
b |-17--17--17--17---|-17--17--17--17---|-15-17-15-17-15-17-20-17-|-20-17-20-17-20-17-20-17-||--15-17-15-17--|
F#|---15--15--15--15-|---15--15--15--15-|-------------------------|-------------------------||---------------|
D |------------------|------------------|-------------------------|-------------------------||:-------------:|
A |------------------|------------------|-------------------------|-------------------------||---------------|
E |------------------|------------------|-------------------------|-------------------------||---------------|
A |------------------|------------------|-------------------------|-------------------------||---------------|
 
gtr2
b |------------------|-----------------|-------------|---------------|--------------|-----------------|
F#|------------------|-----------------|-------------|---------------|--------------|-----------------|
D |------------------|-----------------|-------------|---------------|--------------|-----------------|
A |------------------|-----------------|-------------|---------------|--------------|-----------------|
E |-0-0-0-0--0-0-0-0-|-0-0-0-0-0-0-0-0-|-5--5-5--5-5-|-5-5---5-5---5-|-8--8-8---8-8-|-8-8----8-8---8--|
A |-0-0-0-0--0-0-0-0-|-0-0-0-0-0-0-0-0-|-5--5-5--5-5-|-5-5---5-5---5-|-8--8-8---8-8-|-8-8----8-8---8--|
 
 
chorus cont
                                                     gtr1
b |-12----12----12--12-----|-----------------------| |---10--10-|---10--10-|---10--10-|---10--10--------|
F#|------------------------|-13----13---13----13---| |-15--15---|-15--15---|-15--15---|-15--15----------|
D |----12----12--------12--|---12----12----12---12-| |----------|----------|----------|-----------------|
A |------------------------|-----------------------| |----------|----------|----------|-----------------|
E |------------------------|-----------------------| |----------|----------|----------|-----------------|
A |------------------------|-----------------------| |----------|----------|----------|--------1--3--0--|
                                                     "MARTYRS!!"
gtr2                                                 gtr2
b |---------------------|-------------------------| |-----------|----------|----------|-----------------|
F#|---------------------|-------------------------| |-----------|----------|----------|-----------------|
D |---------------------|-------------------------| |-----------|----------|----------|-----------------|
A |---------------------|-------------------------| |-----------|----------|----------|-----------------|
E |-10-10---10---10-10--|-10-10-10-10-10-10-10-10-| |-0-----0-0-|-0----0-0-|-0----0-0-|-0------1--3--0--|
A |-10-10---10---10-10--|-10-10-10-10-10-10-10-10-| |-0-----0-0-|-0----0-0-|-0----0-0-|-0------1--3--0--|
 
 
  "Maytrs here me out"
gtr1                                                                                                   2xs
b |-----------------|-----------------|-----------------|-----------------| |------------------------------|
F#|-----------------|-----------------|-----------------|-----------------| |------------------------------|
D |-----------------|-----------------|-----------------|-----------------| |:----------------------------:|
A |-----------------|-----------------|-----------------|-----------------| |------------------------------|
E |-1-0-0---0-0---0-|-0---0-0---0-0---|-0-0-0---0-0---0-|-0---0-0---0-0---| |---------------------1-3-1-3--|
A |-0-0-0---0-0---0-|-0---0-0---0-0---|-0-0-0---0-0---0-|-0---0-0---0-0---| |--0-1-3-1b-0-1-3-1-1---3-1-3--|
 
gtr2                                                                                                     2xs
b |-----------------|-----------------|-----------------|-----------------| |------------------------------|
F#|-----------------|-----------------|-----------------|-----------------| |------------------------------|
D |-----------------|-----------------|-----------------|-----------------| |:----------------------------:|
A |-----------------|-----------------|-----------------|-----------------| |------------------------------|
E |-1-0-0-0-0-0-0-0-|-0-0-0-0-0-0-0-0-|-0-0-0-0-0-0-0-0-|-0-0-0-0-0-0-0-0-| |---------------------1-3-1-3--|
A |-0-0-0-0-0-0-0-0-|-0-0-0-0-0-0-0-0-|-0-0-0-0-0-0-0-0-|-0-0-0-0-0-0-0-0-| |--0-1-3-1b-0-1-3-1-1---3-1-3--|
 
 
 
 
"Judas watch us weep"
gtr1
b |-----------------|-------------------|-----------------|-------------------------------|
F#|-----------------|-------------------|-----------------|-------------------------------|
D |-----------------|-------------------|-----------------|-------------------------------|
A |-----------------|-------------------|-----------------|-------------------------------|
E |-1-3-1-3-0-0-0-0-|-0-0-0-0-0-0-0-0-0-|-0-0-0-0-0-0-0-0-|-13---13---13-12-0-0-16-13-0-0-|
A |---3-1-3-0-0-0-0-|-0-0-0-0-0-0-0-0-0-|-0-0-0-0-0-0-0-0-|-13---13---13-12-0-0-16-13-0-0-|
 
gtr1
b |------------------|-----------------|-----------------|-------------------------------|
F#|------------------|-----------------|-----------------|-------------------------------|
D |------------------|-----------------|-----------------|-------------------------------|
A |------------------|-----------------|-----------------|-------------------------------|
E |-1-3-1----0-0---0-|-0---0-0---0-0---|-0-0-0---0-0---0-|-------------------------------|
A |---3-1----0-0---0-|-0---0-0---0-0---|-0-0-0---0-0---0-|-13---13---13-12-0-0-16-13-0-0-|
 
 
 
gtr1&2
b |---------------------------|------|--------------------------|-----|----------------|
F#|---------------------------|------|--------------------------|-----|----------------|
D |---------------------------|------|--------------------------|-----|----------------|
A |---------------------------|------|--------------------------|-----|----------------|
E |---------------------------|------|--------------------------|-----|-0-0-0-0-0-0-0--|
A |-13-12-0-0-16-13-0-0-0-----|------|-13-12-0-0-16-13-0-0-0----|-----|-0-0-0-0-0-0-0--|
 
 
 
 
 
 gtr1&2                                                             3xs  gtr1
b |-----------------------------------------|-------------------------||-------------------------------------|
F#|-----------------------------------------|-------------------------||-------------------------------------|
D |:----------------------------------------|------------------------:||-------------------------------------|
A |-----------------------------------------|-------------------------||-------------------------------------|
E |-----------------------------------------|-------------------------||-0-0-0-0-0----0-0-0-0-0----0-0-0-0-0-|
A |-13-12-0-0-16-13-0-0-13-12-0-0-16-13-0-0-|-13-12-0-0-16-13-0-------||-0-0-0-0-0----0-0-0-0-0----0-0-0-0-0-|
 
                                  gtr2
                               b |---------------------------------|-----------------------------------------|
                               F#|---------------------------------|-----------------------------------------|
                               D |---------------------------------|-----------------------------------------|
                               A |-8-8-8-8-8-8-8-8-8-8-8-8-8-8-8-8-|-8-8-8-8-8-8-8-8-10-10-10-10-10-10-10-10-|
                               E |---------------------------------|-----------------------------------------|
                               A |---------------------------------|-----------------------------------------|
 
 
 
  "lovely!!"
gtrq
b |-----------------|------------------|------------------|
F#|-----------------|------------------|------------------|
D |-7-7-7-7-7-7-7-7-|-9-9-9-9-9-9-12-9-|-10-9-7-----------|
A |-----------------|------------------|--------0---7-7-7-|
E |-----------------|------------------|------------------|
A |-----------------|------------------|------------------|  
   "LONELY!!"
    gtr2
 b |------------------|----------------|------------------|
 F#|------------------|----------------|------------------|
 D |------------------|----------------|------------------|
 A |------------------|----------------|------------------|
 E |--8----8----8-----|------------8---|--8---------------|
 A |--8----8----8-----|------------8---|--8---------------|
 
 
 
 
gtr1
b |-----------------|-----------------|-----------------|-------------------|-------------------------|
F#|-----------------|-----------------|-----------------|-------------------|-------------------13/15-|
D |-----------------|-7-7-7-----------|-----------------|-7-7-7-9-9-9-10-10-|-10/14-14-14-14-14-------|
A |-5-5-5-7-7-7-7-7-|-------8-8-8-7-7-|-7-7-7-7-7-7-7-8-|-------------------|-------------------------|
E |-----------------|-----------------|-----------------|-------------------|-------------------------|
A |-----------------|-----------------|-----------------|-------------------|-------------------------|
 
gtr2
b |----------------|------------------|-----------------|-----------------|---------------------|
F#|----------------|------------------|-----------------|-----------------|---------------------|
D |----------------|------------------|-----------------|-----------------|---------------------|
A |----------------|------------------|-----------------|-----------------|---------------------|
E |--8---8---8--8--|---5----5----5----|--------------5--|-5---5---5---5---|-5--5--5--5--5-------|
A |--8---8---8--8--|---5----5----5----|--------------5--|-5---5---5---5---|-5--5--5--5--5-------|
 
 
 
CHORUS
gtr1                                                                                                  4xs
b |-17--17--17--17---|-17--17--17--17---|-15-17-15-17-15-17-20-17-|-20-17-20-17-20-17-20-17-||--15-17-15-17--|
F#|---15--15--15--15-|---15--15--15--15-|-------------------------|-------------------------||---------------|
D |------------------|------------------|-------------------------|-------------------------||:-------------:|
A |------------------|------------------|-------------------------|-------------------------||---------------|
E |------------------|------------------|-------------------------|-------------------------||---------------|
A |------------------|------------------|-------------------------|-------------------------||---------------|
 
gtr2
b |------------------|-----------------|-------------|---------------|--------------|-----------------|
F#|------------------|-----------------|-------------|---------------|--------------|-----------------|
D |------------------|-----------------|-------------|---------------|--------------|-----------------|
A |------------------|-----------------|-------------|---------------|--------------|-----------------|
E |-0-0-0-0--0-0-0-0-|-0-0-0-0-0-0-0-0-|-5--5-5--5-5-|-5-5---5-5---5-|-8--8-8---8-8-|-8-8----8-8---8--|
A |-0-0-0-0--0-0-0-0-|-0-0-0-0-0-0-0-0-|-5--5-5--5-5-|-5-5---5-5---5-|-8--8-8---8-8-|-8-8----8-8---8--|
 
 
chorus cont
                                                     gtr1
b |-12----12----12--12-----|-----------------------| |---10--10-|---10--10-|---10--10-|---10--10--------|
F#|------------------------|-13----13---13----13---| |-15--15---|-15--15---|-15--15---|-15--15----------|
D |----12----12--------12--|---12----12----12---12-| |----------|----------|----------|-----------------|
A |------------------------|-----------------------| |----------|----------|----------|-----------------|
E |------------------------|-----------------------| |----------|----------|----------|-----------------|
A |------------------------|-----------------------| |----------|----------|----------|--------1--3--0--|
                                                     "MARTYRS!!"
gtr2                                                 gtr2
b |---------------------|-------------------------| |-----------|----------|----------|-----------------|
F#|---------------------|-------------------------| |-----------|----------|----------|-----------------|
D |---------------------|-------------------------| |-----------|----------|----------|-----------------|
A |---------------------|-------------------------| |-----------|----------|----------|-----------------|
E |-10-10---10---10-10--|-10-10-10-10-10-10-10-10-| |-0-----0-0-|-0----0-0-|-0----0-0-|-0------1--3--0--|
A |-10-10---10---10-10--|-10-10-10-10-10-10-10-10-| |-0-----0-0-|-0----0-0-|-0----0-0-|-0------1--3--0--|
 
 
 
gtr|1&1
b |-----------------|---------------|-----------------|-----------------|
F#|-----------------|---------------|-----------------|-----------------|
D |-----------------|---------------|-----------------|-----------------|
A |-----------------|---------------|-----------------|-----------------|
E |-1-0-0---0-0---0-|-0---0-0---0-0-|-0-0---0-0---0-0-|-----------------|
A |-0-0-0---0-0---0-|-0---0-0---0-0-|-0-0---0-0---0-0-|-----------------|
 
 
 
[]breakdown]
gtr 1&2                                                                     2xs
b |--------------------|-------------------|-----------------|-------------------|
F#|--------------------|-------------------|-----------------|-------------------|
D |:-------------------|-------------------|-----------------|------------------:|
A |--------------------|-------------------|-----------------|-------------------|
E |--0-0-0-0---1-----1-|-------------1h3-3-|-----1---1---1---|-1---1---1---1-----|
A |--0-0-0-0---0-0-0-0-|-0-0-0-0-0-0-------|---0-0-0-0-0-0-0-|-0-0-0-0-0-0-0-0---|
 
 
 
[outro]
gre1 & 2                                  4xs
b |----------------|-------------------------| |----------|--------------|
F#|----------------|-------------------------| |----------|--------------|
D |----------------|------------------------:| |----------|--------------|
A |----------------|-------------------------| |----------|--------------|
E |-0-0-0-0----0-0-|-0-0-0-0-----------------| |----------|--------------|
A |-0-0-0-0----0-0-|-0-0-0-0-----------------| |----------|--------------|
            
Submit corrections

↑ Back to top | Tablatures and chords for acoustic guitar and electric guitar, ukulele, drums are parodies/interpretations of the original songs. You may use it for private study, scholarship, research or language learning purposes only