Home » T » The Devil Wears Prada »

The Devil Wears Prada - Planet A Tabs

Artists:  A B C D E F G H I J K L M N O P Q R S T U V W X Y Z # 

Planet A Tabs

(ver. 1) Click to play this song!
The Devil Wears Prada
Tuning:Drop B

Intro Part 1 (0:058-1:05
B|-8-8-8-0-8-8-8-0-8-8-8-0-8-8-8-7-0-0-0-0-0-0-0-0-3-3-3-5-5-5-5-5-----------|

Intro Part 2 (1:06-1:12)
B|-8-8-8-0-8-8-8-0-8-8-8-0-8-8-8-7-0-0-0-0-0-0-0-0-3-3-3-8-8-8-7-7-----------|

Verse 1 (1:24-1:40)
B-|-8~-7~-5~-0------------------8~-7~-5~-0-------0-----0---------------------|
F#|-8~-7~-5~-0-0-0-0-00000000---8~-7~-5~-0-0-0-0-0-0-0-0---------------------|
B-|-8~-7~-5~-0-0-0-0-00000000---8~-7~-5~-0-0-0-0-0-0-0-0---------------------|

Chorus 1 is the both intro parts played through 2x (1:41-2:07)
B|-8-8-8-0-8-8-8-0-8-8-8-0-8-8-8-7-0-0-0-0-0-0-0-0-3-3-3-5-5-5-5-5-----------|
then into
B|-8-8-8-0-8-8-8-0-8-8-8-0-8-8-8-7-0-0-0-0-0-0-0-0-3-3-3-8-8-8-7-7-----------|

Verse 2 is played the same way as the first verse (2:08-2:20)
B-|-8~-7~-5~-0------------------8~-7~-5~-0-------0-----0---------------------|
F#|-8~-7~-5~-0-0-0-0-00000000---8~-7~-5~-0-0-0-0-0-0-0-0---------------------|
B-|-8~-7~-5~-0-0-0-0-00000000---8~-7~-5~-0-0-0-0-0-0-0-0---------------------|

Breakdown riff part 1 (2:21-2:26)                                      
F#|-000-000-000-000-000--00-000-000-111-111-111-111-111--11-111-111----------|
B-|-000-000-000-000-000--00-000-000-111-111-111-111-111--11-111-111----------|

Breakdown riff part 2 (2:27-2:33) Almost the same as part 1
F#|-000-000-000-000-000--00-000-000-111-111-111-111-111-111-1111-------------|
B-|-000-000-000-000-000--00-000-000-111-111-111-111-111-111-11111------------|

Breakdown part 1 (2:34-2:40)
F#|-----------------------1-------------1-------------1----------------------|
B-|-000-000-000-000-x-1-x---1-1---x-1-x---1-1---x-1-x--xx1-------------------|

Breakdown Part 2 (2:41-2:47)
F#|------------------------1-------------1-------------1---------------------|
B-|-0000111144441111-x-1-x---1-1---x-1-x---1-1---x-1-x--xx1b-----------------|

Breakdown Part 3 (2:48-2:53)
F#|-3-2-1-0-0---0-0---0-0---0-0-0-0--------7---0~----------------------------|
B-|-3-2-1-0-0---0-0---0-0---0-0-0--xx5-xx8---8-------------------------------|

Breakdown Part 4 (2:54-3:00)
F#|-0-3-2-1-0~-0~--0~-0~--0~-0---0-1-0-8~------0~----------------------------|
B-|-0-3-2-1-0~-0~--0~-0~--0~-0---0-1-0-8~------0~----------------------------|

Quiet interlude synth thing (3:26-3:31)
C#|-------------------15~-18~-17~--------------------------------------------|
Ab|-------------18~----------------------------------------------------------|
E-|-17~---19~----------------------------------------------------------------|
B-|--------------------------------------------------------------------------|
F#|--------------------------------------------------------------------------|
B-|--------------------------------------------------------------------------|

Final chorus is the both intro parts played through 2x (3:32-3:57)
B|-8-8-8-0-8-8-8-0-8-8-8-0-8-8-8-7-0-0-0-0-0-0-0-0-3-3-3-5-5-5-5-5-----------|
then into
B|-8-8-8-0-8-8-8-0-8-8-8-0-8-8-8-7-0-0-0-0-0-0-0-0-3-3-3-8-8-8-7-7-----------|

Outro Breakdown (3:58-4:11)
F#|-000-000-000-000-000--00-000-000-111-111-111-111---------1----------------|
B-|-000-000-000-000-000--00-000-000-111-111-111-111-1-x-1-x---1-1------------|

************************************            
Submit corrections

↑ Back to top | Tablatures and chords for acoustic guitar and electric guitar, ukulele, drums are parodies/interpretations of the original songs. You may use it for private study, scholarship, research or language learning purposes only