Home » T » The Devil Wears Prada »

The Devil Wears Prada - Ben Has A Kid Bass

Artists:  A B C D E F G H I J K L M N O P Q R S T U V W X Y Z # 

Ben Has A Kid Bass

(ver. 1) Click to play this song!
The Devil Wears Prada
+++++++++++++++++++++++++++++++++++++
|The Devil Wears Prada-Ben Has A Kid|
+++++++++++++++++++++++++++++++++++++
Tuning:Drop D
-
G|-------------------------------------------|
D|-------------------------------------------|
A|-8-8-8-8----8-8-8-8---8-8-8-8----8-8-8-8---|
D|---------00---------0---------00---------0-|

|--------------------------------------------------|
|--------------------------------------------------|
|-------7-7----8-8---7-----------------------------|
|-8-7-5-----00-----0---0-888888888\7\--00000-00000-|

|--------------------------------------------------|--------------|
|--------------------------------------------------|--------------|
|-------7-7----8-8---7-----------------------------|--------------|
|-8-7-5-----00-----0---0-888888888\7\--00000-00000-|--5-8-7-5-3-2-|

|-------------------------------------------------------------------|
|-------------------------------------------------------------------|
|-------------------------------------------------------------------|
|-0000000000000000-5555555555555555-8888888888888888-77777777777777-|

|-------------------------------------------------------------------|
|-------------------------------------------------------------------|
|-------------------------------------------------------------------|
|-0000000000000000-5555555555555555-8888888888888888-77777777777777-|

|------------------------------------------------------|--------|
|------------------------------------------------------|--------|
|------------------------------------------------------|--------|
|-000-0-000-0--000-0-000-0-1--000-0-000-0--000-0-000-0-|---0----|

"Beyond this world..."
|---------------------------------------------|
|---------------------------------------------|
|---------------------------------------------|
|-7-7-7--7-7-8-8-8--8-8-10-10-10--10-10-10-10-|

|------------------------------------------|
|------------------------------------------|
|------------------------------------------|
|-7-7-7--7-7-5-5-5--5-5-0-0-0--00000-00000-|

|---------------------------------------------|
|---------------------------------------------|
|---------------------------------------------|
|-7-7-7--7-7-8-8-8--8-8-10-10-10--10-10-10-10-|

|--------------------------------------------------------------|
|--------------------------------------------------------------|
|--------------------------------------------------------------|
|-7-7-7--7-7-5-5-5--5-5-0-0-0--00000-00000-00000-00000-0-0-0-0-|

|----------------|-----------------|-----------------|----------------|
|----------------|-----------------|-----------------|----------------|
|----------------|-----------------|-----------------|----------------|
|-0--------------|-0---------------|-0---------------|-0--------------|

|---------------------|---------------------|---------------------|
|---------------------|---------------------|---------------------|
|---------------------|---------------------|---------------------|
|-0-/1010101010101010-|-0-/1010101010101010-|-0-/1010101010101010-|

|---------------------|---------|
|---------------------|---------|
|---------------------|---------|
|-0-/1010101010101010-|-0--0--0-|

|--------------------------------------------|
|--------------------------------------------|
|--------------------------------------------|
|-00000000000000000000000000000-4-3-2-2-3--1-|

|--------------------------------------------|
|--------------------------------------------|
|--------------------------------------------|
|-00000000000000000000000000004-4-3-2-2-3--1-|

Breakdown!!!!!!!!
|-----------------------------------------|
|-----------------------------------------|
|-----------------------------------------|
|-0-0-0-0-0--0-0-00-00-0-0-0-0-0--0-0-00--|

|-------------------------------------------|
|-------------------------------------------|
|-------------------------------------------|
|-0-0-0-0-0--0-0-00-00-0-0-0-0-0--0-0-00-00-|

"Beyond this world..."
|----------------------------------------------|
|----------------------------------------------|
|----------------------------------------------|
|-777-777-888-888-101010-101010-101010-101010--|

|---------------------------------|
|---------------------------------|
|---------------------------------|
|-777-777-555-555-000-000-000-000-|

|------------------------------------|
|------------------------------------|
|------------------------------------|
|-77777777-88888888-1010101010101010-|

|--------------------------------|-----------------------------------------|
|--------------------------------|-----------------------------------------|
|--------------------------------|-----------------------------------------|
|-77777777-55555555-00000000-000-|-0----------0-----------0----------0-----|

|----------------------------------|--------------------------------------|
|----------------------------------|--------------------------------------|
|-------7-------8------------------|-------7--------9-9-------------------|
|-00000---00000---000-000-000-000--|-00000----00000-----000-000-000-000---|

|-----------------------------------|-----------------------------------|
|-----------------------------------|-----------------------------------|
|-------7-------8-8-----------------|-------7-------9-9-----------------|
|-00000---00000-----000-000-000-000-|-00000---00000-----000-000-000-000-|

|-----------------------------------|-----------------------------------|
|-----------------------------------|-----------------------------------|
|-------7-------8-8-----------------|-------7-------9-9-----------------|
|-00000---00000-----000-000-000-000-|-00000---00000-----000-000-000-000-|

|-----------------------------------|-----------------------------------|
|-----------------------------------|-----------------------------------|
|-------7-------8-8-----------------|-------7-------9-9-----------------|
|-00000---00000-----000-000-000-000-|-00000---00000-----000-000-000-000-|
            
Submit corrections

↑ Back to top | Tablatures and chords for acoustic guitar and electric guitar, ukulele, drums are parodies/interpretations of the original songs. You may use it for private study, scholarship, research or language learning purposes only