» » »

The Dead Weather - Treat Me Like Your Mother Tabs

Artists:  A B C D E F G H I J K L M N O P Q R S T U V W X Y Z # 

Treat Me Like Your Mother Tabs

(ver. 2) Click to play this song!
The Dead Weather
 Rating:
2.7/5 (7 votes)

 Treat Me Like Your Mother lessons Tabs too difficult? Try these video lessons and learn fast
 
                Their Debut album is actually fantastic, I can't stop listening to it
Treat Me Like your Mother--Second Single From The Dead Weather's Horehound

(BTDubs) I refer to repeats cause I'm to lazy to rewrite
(b)- bend
 p-pull-off
 h-hammer on

e/----------------------------------------------------------------/
b/----------------------------------------------------------------/
g/----------------(A)7p5-----------------------------------7p5----/
d/----------------------7p5---------5----------5--------5-----7p5-/
a/--5(let ring)---------------5----8---5-5-5--8---5----8----------/
e/----------------------------------------------------------------/
Repeat (A) Twice

e/(B)-------------------------------------------------------------/
b/-------------------5p4-------------------4h5--------------------/
g/-----5h6h7-5---------------5h6h7-5---------------5h6h7-5--------/
d/-7-7---------7p5-------7-7---------7p5-------7-7---------7p5----/
a/-----------------7---------------------7---------------------7--/
e/----------------------------------------------------------------/


e/----------------------------------------------------------------/
b/-4-4(b)----------------------------------------Repeat A x4------/
g/---------5h6h7-5------5----(End B)----7p5---------------Then B--/
d/-----7-7--------7p5-----3-----------------7p5-------------------/
a/--------------------7-----5(Let ring)---------------------------/
e/----------------------------------------------------------------/

e/--------------/ This Is Played Many Times Which Brings Us
b/--------------/ to the solo. (A very short solo with an abrupt ending)
g/--------------/
d/------5-----5-/ M-A-N-I-P-U-Late
a/-5-5h8-5-5h8--/
e/--------------/

Solo (add some vibrato to the notes for a nice clean feeling
      no matter what)
e/-------------------------5-5h8p5--8b(10)(10)(10)(10)-/
b/3-3h6p3h6p3-3-3--3h6p3h6-----------------------------/
g/-----------------------------------------------------/
d/-----------------------------------------------------/
a/-----------------------------------------------------/
e/-----------------------------------------------------/

e/----------------------/
b/----------------------/ Repeat A x4
g/--------------7p5-----/
d/------------------7p5-/
a/-5(let ring)----------/
e/----------------------/

e/-----------------------------------------------------/
b/-----------------------------------------------------/
g/------------(Outro)----------------------------------/
d/-----------------------------------------------------/ Repeat The Outro
a/-5(let ring)--5--8p5h8-8p5h8p5--5-8-8p5h8p5-5h8------/ as many times until
e/-----------------------------------------------------/ 
    End                  
e/---------------------/
b/---------------------/
g/-------7p5-----5-----/
d/-----------7p5---3---/
a/-------------------5-/
e/---------------------/
            
Submit corrections


        Treat Me Like Your Mother lessons Hard to play? Try these video lessons and learn fast Treat Me Like Your Mother lessons
        
↑ Back to top | Tablatures and chords for acoustic guitar and electric guitar, ukulele, drums are parodies/interpretations of the original songs. You may use it for private study, scholarship, research or language learning purposes only