» » »

The Dead Weather - Treat Me Like Your Mother Tabs

Artists:  A B C D E F G H I J K L M N O P Q R S T U V W X Y Z # 

Treat Me Like Your Mother Tabs

(ver. 1) Click to play this song!
The Dead Weather
 Rating:
4/5 (12 votes)

 Treat Me Like Your Mother lessons Tabs too difficult? Try these video lessons and learn fast
 
                Tunning: Drop D


 
Intro:

e|----------|----------|-----------|-----------------|
b|----------|----------|-----------|-----------------|
g|----------|----------|-----------|-----------------|
d|----------|----------|-----------|-----------------|
a|----------|----------|-----------|--------5p3p2----|
D|-0--------|-(0)------|-(0)-------|-(0)----------5--|


Verse:

e|----------|------------|----------|---------------|
b|----------|------------|----------|---------------|
g|----------|------------|----------|---------------|
d|----------|------------|----------|---------------| x 4
a|----------|------------|----------|------5p3p2----|
D|-0--0-3-5-|-0-0--0-3-5-|-0--0-3-5-|-0----------5--|


Chorus:

e|------------------|-------------------|
b|------------------|-------------------|
g|------------------|-------------------|
d|------------------|-------------------|
a|-0--0-0-2h3-5p3p2-|--------------3p2--|
d|------------------|-2--2--2--2-2------|

e|------------------|-------------------|
b|------------------|-------------------|
g|------------------|-------------------|
d|------------------|-------------------|
a|-0--0-0-2h3-5p3p2-|--------------2h3--|
d|------------------|-2--2--2--2-2------|

e|------------------|-------------------|
b|------------------|-------------------|
g|------------------|-------------------|
d|------------------|-------------------|
a|-0--0-0-2h3-5p3p2-|--------------3p2--|
d|------------------|-2--2--2--2-2------|

e|------------------|----------------------|
b|------------------|----------------------|
g|------------------|----------------------|
d|------------------|----------------------|
a|-0--0-0-2h3-5p3p2-|---------------3------|
d|------------------|-2--2--2--2-2----3-0--|


e|----------|----------|-----------|-----------------|
b|----------|----------|-----------|-----------------|
g|----------|----------|-----------|-----------------|
d|----------|----------|-----------|-----------------|
a|----------|----------|-----------|--------5p3p2----|
D|-(0)------|-(0)------|-(0)-------|-(0)----------5--|


Verse:

e|----------|------------|----------|---------------|
b|----------|------------|----------|---------------|
g|----------|------------|----------|---------------|
d|----------|------------|----------|---------------| x 4
a|----------|------------|----------|------5p3p2----|
D|-0--0-3-5-|-0-0--0-3-5-|-0--0-3-5-|-0----------5--|


Chorus:

e|------------------|-------------------|
b|------------------|-------------------|
g|------------------|-------------------|
d|------------------|-------------------|
a|-0--0-0-2h3-5p3p2-|--------------3p2--|
d|------------------|-2--2--2--2-2------|

e|------------------|-------------------|
b|------------------|-------------------|
g|------------------|-------------------|
d|------------------|-------------------|
a|-0--0-0-2h3-5p3p2-|--------------2h3--|
d|------------------|-2--2--2--2-2------|

e|------------------|-------------------|
b|------------------|-------------------|
g|------------------|-------------------|
d|------------------|-------------------|
a|-0--0-0-2h3-5p3p2-|--------------3p2--|
d|------------------|-2--2--2--2-2------|

e|------------------|----------------------|
b|------------------|----------------------|
g|------------------|----------------------|
d|------------------|----------------------|
a|-0--0-0-2h3-5p3p2-|---------------3------|
d|------------------|-2--2--2--2-2----3-0--|


e|----------|----------|-----------|----------------|
b|----------|----------|-----------|----------------|
g|----------|----------|-----------|----------------|
d|----------|----------|-----------|----------------|
a|----------|----------|-----------|----------------|
D|-(0)------|-(0)------|-(0)-------|-(0)------------|



Break:

e|-----------------|-----------------|-----------------|-----------------|
b|-----------------|-----------------|-----------------|-----------------|
g|-----------------|-----------------|-----------------|-----------------| x4
d|-----------------|-----------------|-----------------|-----------------|
a|-----------------|-----------------|-----------------|-----------------|
d|-0-0-3-5-0-0-3-5-|-0-0-3-5-0-0-3-5-|-0-0-3-5-0-0-3-5-|-0-0-3-5-0-0-3-5-|


Solo: with octave effects

e|-----------------------------|-5-5/8/5/8/5--8b10r8-b10r8b10-8b10-|
b|-3-3/6/3/6/3--3-3--3/6/3/6/3-|-----------------------------------|
g|-----------------------------|-----------------------------------|
d|-----------------------------|-----------------------------------|
a|-----------------------------|-----------------------------------|
d|-----------------------------|-----------------------------------|


e|----------|----------|-----------|-----------------|
b|----------|----------|-----------|-----------------|
g|----------|----------|-----------|-----------------|
d|----------|----------|-----------|-----------------|
a|----------|----------|-----------|--------5p3p2----|
D|-(0)------|-(0)------|-(0)-------|-(0)----------5--|


Verse:

e|----------|------------|----------|---------------|
b|----------|------------|----------|---------------|
g|----------|------------|----------|---------------|
d|----------|------------|----------|---------------| x 4
a|----------|------------|----------|------5p3p2----|
D|-0--0-3-5-|-0-0--0-3-5-|-0--0-3-5-|-0----------5--|

e|----------|----------|-----------|------------|
b|----------|----------|-----------|------------|
g|----------|----------|-----------|------------|
d|----------|----------|-----------|------------| x 4
a|----------|----------|-----------|------------|
d|--0-------|-(0)------|-(0)-------|-(0)--------| 


Outro:

e|------------------|---------------------|
b|------------------|---------------------|
g|------------------|---------------------|
d|------------------|---------------------| x 6
a|------------------|---------------------| 
d|-0--3p0h3-3p0h3p0-|-0-3-3p0h3p0-0h3-----| 

e|------------------|----------------------|
b|------------------|----------------------|
g|------------------|----------------------|
d|------------------|----------------------| 
a|------------------|----5p3p2-----3-------|
d|-0--3p0h3-3p0h3p0-|----------5------3--0-| 
            
Submit corrections


        Treat Me Like Your Mother lessons Hard to play? Try these video lessons and learn fast Treat Me Like Your Mother lessons
        
↑ Back to top | Tablatures and chords for acoustic guitar and electric guitar, ukulele, drums are parodies/interpretations of the original songs. You may use it for private study, scholarship, research or language learning purposes only