» » »

The Dead Weather - Hang You From The Heavens Bass

Artists:  A B C D E F G H I J K L M N O P Q R S T U V W X Y Z # 

Hang You From The Heavens Bass

(ver. 1) Click to play this song!
The Dead Weather
 Rating:
4/5 (7 votes)

 Hang You From The Heavens lessons Tabs too difficult? Try these video lessons and learn fast
 
                Band: The Dead Weather
Bassist: Jack Lawrence

Mr. Jack White's third band...

Intro & Verse

G|-----------------|
D|-----------------|
A|-----------------|
E|-0--0--0--3~-----|

Chorus

G|---------------------|
D|---------------------|
A|-0-0-0--4---3-3-2-0--|
E|----------4--------0-|

Guitar Interlude (1:45)

G|-----------------|
D|-----------------|
A|-----------------|
E|-0--0--0--3~-----|

The order is pretty much self explanatory, just listen to the song and its pretty 
obvious what goes where :)

Happy playing!
            
Submit corrections


        Hang You From The Heavens lessons Hard to play? Try these video lessons and learn fast Hang You From The Heavens lessons
        
↑ Back to top | Tablatures and chords for acoustic guitar and electric guitar, ukulele, drums are parodies/interpretations of the original songs. You may use it for private study, scholarship, research or language learning purposes only