Home » T » The Chariot »

The Chariot - Teach Tabs

Artists:  A B C D E F G H I J K L M N O P Q R S T U V W X Y Z # 

Teach Tabs

(ver. 2) Click to play this song!
The Chariot
                                                           palm mute 
C#-------------------------------------------------------------xx---------|
G#-------------------------------------------------------------xx---------|
E-------7-7-7b-----7b-----7-7-7b-----7-7-7b-----7b-----7b-----7xx--7-7-7b-|
B----0--7-7-7b--0--7b--0--7-7-7b--0--7-7-7b--0--7b--0--7b--0--7xx--7-7-7b-|
F#---0--5-5-5b--0--5b--0--5-5-5b--0--5-5-5b--0--5b--0--5b--0--5xx--5-5-5b-|
B----0----------0------0----------0----------0------0------0---xx---------|

C#----------------------------|
G#----------------------------|
E-------7b-----7b-----7-7-7b--| x 2
B----0--7b--0--7b--0--7-7-7b--|
F#---0--5b--0--5b--0--5-5-5b--|
B----0------0------0----------|

C#----------------|
G#----------------|
E-------10      \-|
B----0--10 x 16 \-|
F#---0--8       \-|
B----0------------|

C#---------------------------------------------------------------|
G#---------------------------------------------------------------|
E-------7-7-7b-----7b-----7b-----7-7-7b-----7b-----7b-----7-7-7b-|
B----0--7-7-7b--0--7b--0--7b--0--7-7-7b--0--7b--0--7b--0--7-7-7b-|
F#---0--5-5-5b--0--5b--0--5b--0--5-5-5b--0--5b--0--5b--0--5-5-5b-|
B----0----------0------0------0----------0------0------0---------|

C#----------------------------|
G#----------------------------|
E-------7b-----7b-----7-7-7b--| x 2
B----0--7b--0--7b--0--7-7-7b--|
F#---0--5b--0--5b--0--5-5-5b--|
B----0------0------0----------|

                slower, no upstrumming
                bend into some feedback
C#----------------------*------|*
G#----------------------*------|* avoid the lower strings 
E-------10      \b---feedback--|* doing random feedback here
B----0--10 x 8  \b------*------|*
F#---0--8       \b-------------|
B----0-------------------------|

                                        "WHITE FLAG WHITE FLAG WHITE FLAG"
C#--------------------------------xx----------xx---xx---xx---xx---xx---xx-|
G#--------------------------------xx----------xx---xx---xx---xx---xx---xx-|
E-------7-7-7b-----7b-----7b-----7xx-7-7-7b---xx---xx---xx---xx---xx---xx-|
B----0--7-7-7b--0--7b--0--7b--0--7xx-7-7-7b--0xx--0xx--0xx--0xx--0xx--0xx-|
F#---0--5-5-5b--0--5b--0--5b--0--5xx-5-5-5b--0xx--0xx--0xx--0xx--0xx--0xx-|
B----0----------0------0------0---xx---------0xx--0xx--0xx--0xx--0xx--0xx-|

C#------|
G#------|
E-------| for a long time, listen to the song to get a feel for it
B----0--| move your palm up and down the strings super slowly
F#---0--| 
B----0--|
mute x

"BUT I REFUSE TO BREATHE A BREATH OF THE FAILURE ~~"

C#-----------------------------------------------------------------------|
G#-----------------------------------------------------------------------|
E-------10b-------10b---------10b-10b-----10b-------10b---------10b-10b--| 
B----0--10b--0-0--10b--0-0-0--10b-10b--0--10b--0-0--10b--0-0-0--10b-10b--| 
F#---0--8b---0-0--8b---0-0-0--8b--8b---0--8b---0-0--8b---0-0-0--8b--8b---| 
B----0-------0-0-------0-0-0-----------0-------0-0-------0-0-0-----------|
 
C#----------------------------------------|
G#----------------------------------------|
E---------------10b-----10b-------10b-----| 
B----0-0-0-0-0--10b--0--10b--0-0--10b--0--| 
F#---0-0-0-0-0--8b---0--8b---0-0--8b---0--| 
B----0-0-0-0-0-------0-------0-0-------0--|

"RESURECT       AND BE BLESSED BY THE DEAD"

C#----------------------------------------------|
G#----------------------------------------------|
E------10b--------------------------------10b---| 
B------10b------3--0----------------------10b---| 
F#-----8b-------3--0----------------------8b----| 
B---------------3--0----------------------------|

"DON'T DIG UP OLD BONES"

C#--------------------|
G#--------------------|
E---------------------| 
B---0--0--0--0--------| 
F#--0--0--0--0--------| 
B---0--0--0--0--------|

C#---------------------------------|
G#---------------------------------|
E----------------------------------| 
B-------3-3------3-3------3--1-2-3-| x 2
F#----0--------0--------0----------| 
B---3--------3--------3------------|

C#---------------------------------|
G#---------------------------------|
E----------------------------------| 
B-------3-3------3-3------3--1-3---| 
F#----0--------0--------0----------| 
B---3--------3--------3------------|

C#---------------------------------|
G#---------------------------------|
E----------------------------------| 
B-------3-3------3-3------3--1-2---| 
F#----0--------0--------0----------| 
B---3--------3--------3------------|
            
Submit corrections

↑ Back to top | Tablatures and chords for acoustic guitar and electric guitar, ukulele, drums are parodies/interpretations of the original songs. You may use it for private study, scholarship, research or language learning purposes only