Home » T » The Chariot »

The Chariot - Teach Tabs

Artists:  A B C D E F G H I J K L M N O P Q R S T U V W X Y Z # 

Teach Tabs

(ver. 1) Click to play this song!
The Chariot
The Chariot
Drop B (down 1 and 1/2 steps, drop d)

Riff A
E-----------------------------|
B-----------------------------|
G-------7-7-7b-----7b-----7b--|
D-------7-7-7b-----7b-----7b--|
A----0--5-5-5b--0--5b--0--5b--|
E----0----------0------0------|

Mid Riff B
E-------------------------------------------------------------------------|
B-------------------------------------------------------------------------|
G-10-10-10-10-10-10-10-10-10-10-10-10-10-10\------------------------------|
D-10-10-10-10-10-10-10-10-10-10-10-10-10-10\------------------------------|
A-8--8--8--8--8--8--8--8--8--8--8--8--8--8-\3-3-3-3-3-3-3-3-3-3-3-3-3-3-3-|
E-------------------------------------------3-3-3-3-3-3-3-3-3-3-3-3-3-3-3-|

(Repeat)

E--------------------------------------------------------------------------|
B--------------------------------------------------------------------------|
G--------------------------------------------------------------------------|
D--------------------------------------------------------------------------|
A-0-0-0-0-0-0--x-x-x-x-x-x-x-x-x-x-x-x-x-x-x-x-x-x-x-x-x-x-x-x-x-x-x-x-x-x-|
E-0-0-0-0-0-0--x-x-x-x-x-x-x-x-x-x-x-x-x-x-x-x-x-x-x-x-x-x-x-x-x-x-x-x-x-x-|

(Palm mute your hand around the middle of the two pickups instead of at the end of the 
It's kinda random.)

E------------------------|
B------------------------|
G------10b----------10b--|
D--0---10b---0------10b--|
A--0----8b---0---0---8b--|
E--0---------0---0-------|

E---------------------------------------------------|
B---------------------------------------------------|
G---------------------------------------------------|
D--0---------------6--0-----------------------------|
A--0---------------6--0------------0--0--0--0--0----|
E--0---------------6--0------------0--0--0--0--0----|

E--------------------------------------------------|
B--------------------------------------------------|
G--------------------------------------------------|
D--3---------3---3---------3---3---1-2-3-----------|
A------0-------------0-----------------------------|
E---------3-------------3--------------------------|

Thanks!
            
Submit corrections

↑ Back to top | Tablatures and chords for acoustic guitar and electric guitar, ukulele, drums are parodies/interpretations of the original songs. You may use it for private study, scholarship, research or language learning purposes only