» » »

The Bravery - Ocean Tabs

Artists:  A B C D E F G H I J K L M N O P Q R S T U V W X Y Z # 

Ocean Tabs

(ver. 2) Click to play this song!
The Bravery
 Rating:
4/5 (4 votes)

 Ocean lessons Tabs too difficult? Try these video lessons and learn fast
 
                

intro x2 then, 1x once verse starts
e-------------------------------------------------|
B-------------------------------------------------|
G-------------------------------------------------|
D-------------------------------------        <---| x3 I'll refer to this one as (a)
A---6-6-6-6-6-6-6-6-5-5-5-5-8-8-6-5---------------|
E--8-8-8-8-6-6-6-6-6-6-6-6-5-5-5-5----------------|

There's one where..
e----------------------------------------------------------|
B----------------------------------------------------------|
G----------------------------------------------------------|
D--------------------------------------      <-------------|and this one as (b)
A---6-6-6-6-6-6-6-6-5-5-5-5-6-6-6-6------------------------|
E--8-8-8-8-6-6-6-6-6-6-6-6-8-8-8-8-------------------------|

I carry your image...
e----------------------------------------|
B----------------------------------------|
G----------------------------------------|
D----------------------------------------|
A---6-6-6-6-6-6-6-6-5-5-5-5-8-8-6-5------|
E--8-8-8-8-6-6-6-6-6-6-6-6-5-5-5-5-------|

And I've looked upon it...
e-----------------------------------------------|
B-----------------------------------------------|
G-----------------------------------------------|
D-----------------------------------------------|
A---6-6-6-6-6-6-6-6-5-5-5-5-6-6-6-6-6-6-6-6-----|
E--8-8-8-8-6-6-6-6-6-6-6-6-8-8-8-8-8-8-8-8------|


Lead Guitar
e-------------------------------|
B-------------------------------|
G----------5--------------------|
D----5------------3-------------|
A--3-----3------1--------5------|
E-----------------------6-------|

Play Rhythm (a) and lead twice


Rhythm (a) throughout 2nd verse

end verse two like this
e-----------------------------------------------|
B-----------------------------------------------|
G-----------------------------------------------|
D-----------------------------------------------|
A---6-6-6-6-6-6-6-6-5-5-5-5-8-8-8-8-8-8-6-5-----|
E--8-8-8-8-6-6-6-6-6-6-6-6-5-5-5-5-5-5-5-5------|

play lead and rhythm (a) throughout chorus
            
Submit corrections


        Ocean lessons Hard to play? Try these video lessons and learn fast Ocean lessons
        
↑ Back to top | Tablatures and chords for acoustic guitar and electric guitar, ukulele, drums are parodies/interpretations of the original songs. You may use it for private study, scholarship, research or language learning purposes only