Home » T » The Bravery »

The Bravery - Ocean Bass

Artists:  A B C D E F G H I J K L M N O P Q R S T U V W X Y Z # 

Ocean Bass

(ver. 1) Click to play this song!
The Bravery
 Rating:
4.3/5 (6 votes)
                This is the Moon Version off of The Sun and The Moon Complete
Use lots of treble and reverb

   1 + 2 + 3 + 4 + 1 + 2 + 3 + 4 + 1 + 2 + 3 + 4 + 1 + 2 + 3 + 4 +
G|---8---8---8---8---8---8---8---8---7---7---7---7---10--10--8---7|
D|10--10--10--10---8---8---8---8---8---8---8---8---8---8---8---8--|
A|----------------------------------------------------------------|
E|----------------------------------------------------------------|

x3

   1 + 2 + 3 + 4 + 1 + 2 + 3 + 4 + 1 + 2 + 3 + 4 + 1 + 2 + 3 + 4 +
G|---8---8---8---8---8---8---8---8---7---7---7---7---8---8---8---8|
D|10--10--10--10---8---8---8---8---8---8---8---8--10--10--10--10--|
A|----------------------------------------------------------------|
E|----------------------------------------------------------------|

   1 + 2 + 3 + 4 + 1 + 2 + 3 + 4 + 1 + 2 + 3 + 4 + 1 + 2 + 3 + 4 +
G|---8---8---8---8---8---8---8---8---7---7---7---7---10--10--8---7|
D|10--10--10--10---8---8---8---8---8---8---8---8---8---8---8---8--|
A|----------------------------------------------------------------|
E|----------------------------------------------------------------|

   1 + 2 + 3 + 4 + 1 + 2 + 3 + 4 + 1 + 2 + 3 + 4 + 1 + 2 + 3 + 4 +
G|---8---8---8---8---8---8---8---8---7---7---7---7---8---8---8---8|
D|10--10--10--10---8---8---8---8---8---8---8---8--10--10--10--10--|
A|----------------------------------------------------------------|
E|----------------------------------------------------------------|

   1 + 2 + 3 + 4 +  
G|---8---8---8---8-|
D|10--10--10--10---|
A|-----------------|
E|-----------------|

   1 + 2 + 3 + 4 + 1 + 2 + 3 + 4 + 1 + 2 + 3 + 4 + 1 + 2 + 3 + 4 +
G|---8---8---8---8---8---8---8---8---7---7---7---7---10--10--8---7|
D|10--10--10--10---8---8---8---8---8---8---8---8---8---8---8---8--|
A|----------------------------------------------------------------|
E|----------------------------------------------------------------|

x5

   1 + 2 + 3 + 4 + 1 + 2 + 3 + 4 + 1 + 2 + 3 + 4 + 1 + 2 + 3 + 4 +
G|---8---8---8---8---8---8---8---8---7---7---7---7--10--10--10--10|
D|10--10--10--10---8---8---8---8---8---8---8---8---8---8---8---8--|
A|----------------------------------------------------------------|
E|----------------------------------------------------------------|

   1 + 2 + 3 + 4 + 
G|---10--10--8---7|
D|-8---8---8---8--|
A|----------------|
E|----------------|

   1 + 2 + 3 + 4 + 1 + 2 + 3 + 4 + 1 + 2 + 3 + 4 + 1 + 2 + 3 + 4 +
G|---8---8---8---8---8---8---8---8---7---7---7---7---10--10--8---7|
D|10--10--10--10---8---8---8---8---8---8---8---8---8---8---8---8--|
A|----------------------------------------------------------------|
E|----------------------------------------------------------------|

x2

   1 + 2 + 3 + 4 + 1 + 2 + 3 + 4 + 1 + 2 + 3 + 4 + 1 + 2 + 3 + 4 +
G|-----------------------------------------------------------------|
D|-----------------------------------------------------------------|
A|-----------------6-6-6-6-6-6-6-6-----------------8-8-8-8-8-8-8-8-|
E|-8-8-8-8-8-8-8-8-----------------6-6-6-6-6-6-6-6-----------------|

x4

Pause

   1 + 2 + 3 + 4 + 1 + 2 + 3 + 4 + 1 + 2 + 3 + 4 + 1 + 2 + 3 + 4 +
G|-----------------------------------------------------------------|
D|-----------------------------------------------------------------|
A|-----------------6-6-6-6-6-6-6-6-----------------8-8-8-8-8-6-6-5-|
E|-8-8-8-8-8-8-8-8-----------------6-6-6-6-6-6-6-6-----------------|

x6
            
Submit corrections

↑ Back to top | Tablatures and chords for acoustic guitar and electric guitar, ukulele, drums are parodies/interpretations of the original songs. You may use it for private study, scholarship, research or language learning purposes only