» » »

The Bravery - Ocean Tabs

Artists:  A B C D E F G H I J K L M N O P Q R S T U V W X Y Z # 

Ocean Tabs

(ver. 1) Click to play this song!
The Bravery
 Rating:
4.5/5 (8 votes)

 Ocean lessons Tabs too difficult? Try these video lessons and learn fast
 
                Those other tabs were way off.  This isn't 100%, but it's pretty close.


Capo first fret


Intro
E|-----2-2-2-2-----2-2-2-2-----3-3-3-3--------|
B|-----3-3-3-3-----3-3-3-3-----3-3-3-3--------|
G|-----4-4-4-4-----4-4-4-4-----4-4-4-4--------|
D|-----4-4-4-4-----4-4-4-4-----5-5-5-5--------|
A|---2-2-2-2-2---0-2-2-2-2-----5-5-5-5--------|
E|---------------------------3-3-3-3-3--------|


E|-----2-2-2-2-----0-0-0-0-------3-3-3-3------|
B|-----2-2-2-2-----0-0-0-0-------3-3-3-3------|
G|-----2-2-2-2-----0-0-0-0-------4-4-4-4------|
D|-----4-4-4-4-----2-2-2-2-------5-5-5-5------|  x2
A|-----4-4-4-4-----2-2-2-2-------5-5-5-5---0--|
E|---2-2-2-2-2---0-0-0-0-0---2-3-3-3-3-3------|


Verse 1
E|-----2-2-2-2-----2-2-2-2-----3-3-3-3--------|
B|-----3-3-3-3-----3-3-3-3-----3-3-3-3--------|
G|-----4-4-4-4-----4-4-4-4-----4-4-4-4--------|
D|-----4-4-4-4-----4-4-4-4-----5-5-5-5--------|
A|---2-2-2-2-2---0-2-2-2-2-----5-5-5-5--------|
E|---------------------------3-3-3-3-3--------|
    I climbed up a mountain and looked off the

E|-----2-2-2-2-----0-0-0-0-------3-3-3-3------|
B|-----2-2-2-2-----0-0-0-0-------3-3-3-3------|
G|-----2-2-2-2-----0-0-0-0-------4-4-4-4------|
D|-----4-4-4-4-----2-2-2-2-------5-5-5-5------|
A|-----4-4-4-4-----2-2-2-2-------5-5-5-5---0--|
E|---2-2-2-2-2---0-0-0-0-0---2-3-3-3-3-3------|
    edge,    At all of the lives that I never have led

E|-----2-2-2-2-----2-2-2-2-----3-3-3-3--------|
B|-----3-3-3-3-----3-3-3-3-----3-3-3-3--------|
G|-----4-4-4-4-----4-4-4-4-----4-4-4-4--------|
D|-----4-4-4-4-----4-4-4-4-----5-5-5-5--------|
A|---2-2-2-2-2---0-2-2-2-2-----5-5-5-5--------|
E|---------------------------3-3-3-3-3--------|
  There’s one where I stared with you

E|-----2-2-2-2-----0-0-0-0-------3-3-3-3------|
B|-----2-2-2-2-----0-0-0-0-------3-3-3-3------|
G|-----2-2-2-2-----0-0-0-0-------4-4-4-4------|
D|-----4-4-4-4-----2-2-2-2-------5-5-5-5------|
A|-----4-4-4-4-----2-2-2-2-------5-5-5-5---0--|
E|---2-2-2-2-2---0-0-0-0-0---2-3-3-3-3-3------|
 across the sea, I wonder do you still think of me?

E|-----2-2-2-2-----2-2-2-2-----3-3-3-3--------|
B|-----3-3-3-3-----3-3-3-3-----3-3-3-3--------|
G|-----4-4-4-4-----4-4-4-4-----4-4-4-4--------|
D|-----4-4-4-4-----4-4-4-4-----5-5-5-5--------|
A|---2-2-2-2-2---0-2-2-2-2-----5-5-5-5--------|
E|---------------------------3-3-3-3-3--------|
  I carry your image always in my

E|-----2-2-2-2-----0-0-0-0-------3-3-3-3------|
B|-----2-2-2-2-----0-0-0-0-------3-3-3-3------|
G|-----2-2-2-2-----0-0-0-0-------4-4-4-4------|
D|-----4-4-4-4-----2-2-2-2-------5-5-5-5------|
A|-----4-4-4-4-----2-2-2-2-------5-5-5-5---0--|
E|---2-2-2-2-2---0-0-0-0-0---2-3-3-3-3-3------|
  head,      Faded and yellowed and torn at the edge

E|-----2-2-2-2-----2-2-2-2-----3-3-3-3--------|
B|-----3-3-3-3-----3-3-3-3-----3-3-3-3--------|
G|-----4-4-4-4-----4-4-4-4-----4-4-4-4--------|
D|-----4-4-4-4-----4-4-4-4-----5-5-5-5--------|
A|---2-2-2-2-2---0-2-2-2-2-----5-5-5-5--------|
E|---------------------------3-3-3-3-3--------|
  And I’ve looked upon it for so many

E|-----2-2-2-2-----0-0-0-0-------3-3-3-3---3-3--3--3-3-3-3-----|
B|-----2-2-2-2-----0-0-0-0-------3-3-3-3---3-3--3--3-3-3-3-----|
G|-----2-2-2-2-----0-0-0-0-------4-4-4-4---4-4--4--4-4-4-4-----|
D|-----4-4-4-4-----2-2-2-2-------5-5-5-5---5-5--5--5-5-5-5-----|
A|-----4-4-4-4-----2-2-2-2-------5-5-5-5---5-5--5--5-5-5-5--0--|
E|---2-2-2-2-2---0-0-0-0-0---2-3-3-3-3-3---3-3—-3--3-3-3-3-----|
   years,     Slowly I’m losing your face


Chorus
E|-----2-2-2-2--2-2-----5-5-5-5--5-5----------|
B|-----3-3-3-3--3-3-----5-5-5-5--5-5----------|
G|-----4-4-4-4--4-4-----7-7-7-7--7-7----------|
D|-----4-4-4-4--4-4-----7-7-7-7--7-7----------|
A|---2-2-2-2-2--2-2---5-5-5-5-5--5-5----------|
E|--------------------------------------------|
   Oh,              the ocean rolls us

E|-----5-5-5-5--5-5-----3-3-3-3--3-3----------|
B|-----5-5-5-5--5-5-----3-3-3-3--3-3----------|
G|-----6-6-6-6--6-6-----4-4-4-4--4-4----------|
D|-----7-7-7-7--7-7-----5-5-5-5--5-5----------|
A|-----7-7-7-7--7-7-----5-5-5-5--5-5-----0----|
E|---5-5-5-5-5--5-5---3-3-3-3-3--3-3----------|
    away,            away,             

E|-----2-2-2-2--2-2-----5-5-5-5--5-5----------|
B|-----3-3-3-3--3-3-----5-5-5-5--5-5----------|
G|-----4-4-4-4--4-4-----7-7-7-7--7-7----------|
D|-----4-4-4-4--4-4-----7-7-7-7--7-7----------|
A|---2-2-2-2-2--2-2---5-5-5-5-5--5-5----------|
E|--------------------------------------------|
   away           The ocean rolls us

E|-----5-5-5-5--5-5-----3-3-3-3--3-3----------|
B|-----5-5-5-5--5-5-----3-3-3-3--3-3----------|
G|-----6-6-6-6--6-6-----4-4-4-4--4-4----------|
D|-----7-7-7-7--7-7-----5-5-5-5--5-5----------|
A|-----7-7-7-7--7-7-----5-5-5-5--5-5-----0----|
E|---5-5-5-5-5--5-5---3-3-3-3-3--3-3----------|
	away


Verse 2
E|-----2-2-2-2-----2-2-2-2-----3-3-3-3--------|
B|-----3-3-3-3-----3-3-3-3-----3-3-3-3--------|
G|-----4-4-4-4-----4-4-4-4-----4-4-4-4--------|
D|-----4-4-4-4-----4-4-4-4-----5-5-5-5--------|
A|---2-2-2-2-2---0-2-2-2-2-----5-5-5-5--------|
E|---------------------------3-3-3-3-3--------|
    Sixes and sevens we live on jet

E|-----2-2-2-2-----0-0-0-0-------3-3-3-3------|
B|-----2-2-2-2-----0-0-0-0-------3-3-3-3------|
G|-----2-2-2-2-----0-0-0-0-------4-4-4-4------|
D|-----4-4-4-4-----2-2-2-2-------5-5-5-5------|
A|-----4-4-4-4-----2-2-2-2-------5-5-5-5---0--|
E|---2-2-2-2-2---0-0-0-0-0---2-3-3-3-3-3------|
    planes,    And so many faces I don’t know the names

E|-----2-2-2-2-----2-2-2-2-----3-3-3-3--------|
B|-----3-3-3-3-----3-3-3-3-----3-3-3-3--------|
G|-----4-4-4-4-----4-4-4-4-----4-4-4-4--------|
D|-----4-4-4-4-----4-4-4-4-----5-5-5-5--------|
A|---2-2-2-2-2---0-2-2-2-2-----5-5-5-5--------|
E|---------------------------3-3-3-3-3--------|
  So many friends now and none of them

E|-----2-2-2-2-----0-0-0-0-------3-3-3-3------|
B|-----2-2-2-2-----0-0-0-0-------3-3-3-3------|
G|-----2-2-2-2-----0-0-0-0-------4-4-4-4------|
D|-----4-4-4-4-----2-2-2-2-------5-5-5-5------|
A|-----4-4-4-4-----2-2-2-2-------5-5-5-5---0--|
E|---2-2-2-2-2---0-0-0-0-0---2-3-3-3-3-3------|
 mine,         Forgotten as soon as we meet

E|-----2-2-2-2-----2-2-2-2-----3-3-3-3--------|
B|-----3-3-3-3-----3-3-3-3-----3-3-3-3--------|
G|-----4-4-4-4-----4-4-4-4-----4-4-4-4--------|
D|-----4-4-4-4-----4-4-4-4-----5-5-5-5--------|
A|---2-2-2-2-2---0-2-2-2-2-----5-5-5-5--------|
E|---------------------------3-3-3-3-3--------|
  All of these moments are lost in 

E|-----2-2-2-2-----0-0-0-0-------3-3-3-3------|
B|-----2-2-2-2-----0-0-0-0-------3-3-3-3------|
G|-----2-2-2-2-----0-0-0-0-------4-4-4-4------|
D|-----4-4-4-4-----2-2-2-2-------5-5-5-5------|
A|-----4-4-4-4-----2-2-2-2-------5-5-5-5---0--|
E|---2-2-2-2-2---0-0-0-0-0---2-3-3-3-3-3------|
  time, But you’re caught in my head like a thorn on a vine

E|-----2-2-2-2-----2-2-2-2-----3-3-3-3--------|
B|-----3-3-3-3-----3-3-3-3-----3-3-3-3--------|
G|-----4-4-4-4-----4-4-4-4-----4-4-4-4--------|
D|-----4-4-4-4-----4-4-4-4-----5-5-5-5--------|
A|---2-2-2-2-2---0-2-2-2-2-----5-5-5-5--------|
E|---------------------------3-3-3-3-3--------|
  Not to hurt but to mend me and I wonder

E|-----2-2-2-2-----0-0-0-0-------3-3-3-3---3-3--3--3-3-3-3-----|
B|-----2-2-2-2-----0-0-0-0-------3-3-3-3---3-3--3--3-3-3-3-----|
G|-----2-2-2-2-----0-0-0-0-------4-4-4-4---4-4--4--4-4-4-4-----|
D|-----4-4-4-4-----2-2-2-2-------5-5-5-5---5-5--5--5-5-5-5-----|
A|-----4-4-4-4-----2-2-2-2-------5-5-5-5---5-5--5--5-5-5-5--0--|
E|---2-2-2-2-2---0-0-0-0-0---2-3-3-3-3-3---3-3—-3--3-3-3-3-----|
   why,     Do I wish I’d never known you at all?


Chorus
E|-----2-2-2-2--2-2-----5-5-5-5--5-5----------|
B|-----3-3-3-3--3-3-----5-5-5-5--5-5----------|
G|-----4-4-4-4--4-4-----7-7-7-7--7-7----------|
D|-----4-4-4-4--4-4-----7-7-7-7--7-7----------|
A|---2-2-2-2-2--2-2---5-5-5-5-5--5-5----------|
E|--------------------------------------------|
   Oh,              the ocean rolls us

E|-----5-5-5-5--5-5-----3-3-3-3--3-3----------|
B|-----5-5-5-5--5-5-----3-3-3-3--3-3----------|
G|-----6-6-6-6--6-6-----4-4-4-4--4-4----------|
D|-----7-7-7-7--7-7-----5-5-5-5--5-5----------|
A|-----7-7-7-7--7-7-----5-5-5-5--5-5-----0----|
E|---5-5-5-5-5--5-5---3-3-3-3-3--3-3----------|
    away,            away,             

E|-----2-2-2-2--2-2-----5-5-5-5--5-5----------|
B|-----3-3-3-3--3-3-----5-5-5-5--5-5----------|
G|-----4-4-4-4--4-4-----7-7-7-7--7-7----------|
D|-----4-4-4-4--4-4-----7-7-7-7--7-7----------|
A|---2-2-2-2-2--2-2---5-5-5-5-5--5-5----------|
E|--------------------------------------------|
   away           The ocean rolls us

E|-----5-5-5-5--5-5-----3-3-3-3--3-3----------|
B|-----5-5-5-5--5-5-----3-3-3-3--3-3----------|
G|-----6-6-6-6--6-6-----4-4-4-4--4-4----------|
D|-----7-7-7-7--7-7-----5-5-5-5--5-5----------|
A|-----7-7-7-7--7-7-----5-5-5-5--5-5-----0----|
E|---5-5-5-5-5--5-5---3-3-3-3-3--3-3----------|
	away


Bridge
E|-----2-2-2-2--2-2-----5-5-5-5--5-5----------|
B|-----3-3-3-3--3-3-----5-5-5-5--5-5----------|
G|-----4-4-4-4--4-4-----7-7-7-7--7-7----------|
D|-----4-4-4-4--4-4-----7-7-7-7--7-7----------|
A|---2-2-2-2-2--2-2---5-5-5-5-5--5-5----------|
E|--------------------------------------------|
 The sun and the moon, an ocean of air

E|-----5-5-5-5--5-5-----3-3-3-3--3-3----------|
B|-----5-5-5-5--5-5-----3-3-3-3--3-3----------|
G|-----6-6-6-6--6-6-----4-4-4-4--4-4----------|
D|-----7-7-7-7--7-7-----5-5-5-5--5-5----------|
A|-----7-7-7-7--7-7-----5-5-5-5--5-5-----0----|
E|---5-5-5-5-5--5-5---3-3-3-3-3--3-3----------|
  So many voices but nothing is there,             

E|-----2-2-2-2--2-2-----5-5-5-5--5-5----------|
B|-----3-3-3-3--3-3-----5-5-5-5--5-5----------|
G|-----4-4-4-4--4-4-----7-7-7-7--7-7----------|
D|-----4-4-4-4--4-4-----7-7-7-7--7-7----------|
A|---2-2-2-2-2--2-2---5-5-5-5-5--5-5----------|
E|--------------------------------------------|
   But the ghost of you asking me why,

E|-----5-5-5-5--5-5-----3-3-3-3--3-3----------|
B|-----5-5-5-5--5-5-----3-3-3-3--3-3----------|
G|-----6-6-6-6--6-6-----4-4-4-4--4-4----------|
D|-----7-7-7-7--7-7-----5-5-5-5--5-5----------|
A|-----7-7-7-7--7-7-----5-5-5-5--5-5-----0----|
E|---5-5-5-5-5--5-5---3-3-3-3-3--3-3----------|
  Why did I leave?


Chorus
E|-----2-2-2-2--2-2-----5-5-5-5--5-5----------|
B|-----3-3-3-3--3-3-----5-5-5-5--5-5----------|
G|-----4-4-4-4--4-4-----7-7-7-7--7-7----------|
D|-----4-4-4-4--4-4-----7-7-7-7--7-7----------|
A|---2-2-2-2-2--2-2---5-5-5-5-5--5-5----------|
E|--------------------------------------------|
   Oh,              the ocean rolls us

E|-----5-5-5-5--5-5-----3-3-3-3--3-3----------|
B|-----5-5-5-5--5-5-----3-3-3-3--3-3----------|
G|-----6-6-6-6--6-6-----4-4-4-4--4-4----------|
D|-----7-7-7-7--7-7-----5-5-5-5--5-5----------|
A|-----7-7-7-7--7-7-----5-5-5-5--5-5-----0----|
E|---5-5-5-5-5--5-5---3-3-3-3-3--3-3----------|
    away,            away,             

E|-----2-2-2-2--2-2-----5-5-5-5--5-5----------|
B|-----3-3-3-3--3-3-----5-5-5-5--5-5----------|
G|-----4-4-4-4--4-4-----7-7-7-7--7-7----------|
D|-----4-4-4-4--4-4-----7-7-7-7--7-7----------|
A|---2-2-2-2-2--2-2---5-5-5-5-5--5-5----------|
E|--------------------------------------------|
   away           The ocean rolls us

E|-----5-5-5-5--5-5-----3-3-3-3--3-3----------|
B|-----5-5-5-5--5-5-----3-3-3-3--3-3----------|
G|-----6-6-6-6--6-6-----4-4-4-4--4-4----------|
D|-----7-7-7-7--7-7-----5-5-5-5--5-5----------|
A|-----7-7-7-7--7-7-----5-5-5-5--5-5-----0----|
E|---5-5-5-5-5--5-5---3-3-3-3-3--3-3----------|
	away

E|-----2-2-2-2--2-2-----5-5-5-5--5-5----------|
B|-----3-3-3-3--3-3-----5-5-5-5--5-5----------|
G|-----4-4-4-4--4-4-----7-7-7-7--7-7----------|
D|-----4-4-4-4--4-4-----7-7-7-7--7-7----------|
A|---2-2-2-2-2--2-2---5-5-5-5-5--5-5----------|
E|--------------------------------------------|
   Oh,              the ocean rolls us

E|-----5-5-5-5--5-5-----3-3-3-3--3-3----------|
B|-----5-5-5-5--5-5-----3-3-3-3--3-3----------|
G|-----6-6-6-6--6-6-----4-4-4-4--4-4----------|
D|-----7-7-7-7--7-7-----5-5-5-5--5-5----------|
A|-----7-7-7-7--7-7-----5-5-5-5--5-5-----0----|
E|---5-5-5-5-5--5-5---3-3-3-3-3--3-3----------|
    away,            away,             

E|-----2-2-2-2--2-2-----5-5-5-5--5-5----------|
B|-----3-3-3-3--3-3-----5-5-5-5--5-5----------|
G|-----4-4-4-4--4-4-----7-7-7-7--7-7----------|
D|-----4-4-4-4--4-4-----7-7-7-7--7-7----------|
A|---2-2-2-2-2--2-2---5-5-5-5-5--5-5----------|
E|--------------------------------------------|
   away           And I lose your hand through

E|-----5-5-5-5--5-5-----3--3-3-3-3------------|
B|-----5-5-5-5--5-5-----3--3-3-3-3------------|
G|-----6-6-6-6--6-6-----4--4-4-4-4------------|
D|-----7-7-7-7--7-7-----5--5-5-5-5------------|
A|-----7-7-7-7--7-7-----5--5-5-5-5------------|
E|---5-5-5-5-5--5-5---3-3--3-3-3-3------------|
  the waves
            
Submit corrections


        Ocean lessons Hard to play? Try these video lessons and learn fast Ocean lessons
        
↑ Back to top | Tablatures and chords for acoustic guitar and electric guitar, ukulele, drums are parodies/interpretations of the original songs. You may use it for private study, scholarship, research or language learning purposes only