» » »

The Bravery - Hatefuck Bass

Artists:  A B C D E F G H I J K L M N O P Q R S T U V W X Y Z # 

Hatefuck Bass

(ver. 2) Click to play this song!
The Bravery
 Rating:
4/5 (4 votes)

 Hatefuck lessons Tabs too difficult? Try these video lessons and learn fast
 
                standard tuning

intro
rest 3 measures
|----------------------------------|
|----------------------------------|
|----------------------------------|
|-10--10--101010109---9-9---9-9-9--|

  1   +   2   +   3   +   4   +

then:
|------------------------------------------------------------------|
|------------------------------------------------------------------|
|------------------------------------------------------------------|
|-7---7---7-7-7-7-7---7-7---7-7-7-10--10--101010109---9-9---9-9-9--|x2

  1   +   2   +   3   +   4   +   1   +   2   +   3   +   4   +

verse 1:
|------------------------------------------------------------------|
|------------------------------------------------------------------|
|------------------------------------------------------------------|
|-7---7---7-7-7-7-7---7-7---7-7-7-10--10--101010109---9-9---9-9-9--|x8

  1   +   2   +   3   +   4   +   1   +   2   +   3   +   4   +

chorus:
|------------------------------------------------------------------|
|------------------------------------------------------------------|
|-----------------10--1010--101010---------------------------------|
|-7---7---7-7-7-7-----------------10--10--101010105---5-5---5-5-5--|x3

  1   +   2   +   3   +   4   +   1   +   2   +   3   +   4   +

|------------------------------------------------------------------|
|------------------------------------------------------------------|
|-----------------10--1010--101010---------------------------------|
|-7---7---7-7-7-7-----------------7---7---7-7-7-7-7---7-7---7-7-7--|

  1   +   2   +   3   +   4   +   1   +   2   +   3   +   4   +

post-chorus:
just rest for 2 measures

verse 2:
|------------------------------------------------------------------|
|------------------------------------------------------------------|
|------------------------------------------------------------------|
|-7---7---7-7-7-7-7---7-7---7-7-7-10--10--101010109---9-9---9-9-9--|x3

  1   +   2   +   3   +   4   +   1   +   2   +   3   +   4   +

|------------------------------------------------------------------|
|------------------------------------------------------------------|
|------------------------------------------------------------------|
|-7---7---7-7-7-7-7---7-7---7-7-7-10--10--10101010-----------------|

  1   +   2   +   3   +   4   +   1   +   2   +   3   +   4   +

repeat chorus

solo:
|------------------------------------------------------------------|
|------------------------------------------------------------------|
|---------------------------------3---3---3-3-3-3------------------|
|-0---0---0-0-0-0-3---3-3---3-3-3-----------------5---5-5---5-5-5--|x3

  1   +   2   +   3   +   4   +   1   +   2   +   3   +   4   +

|------------------------------------------------------------------|
|------------------------------------------------------------------|
|---------------------------------7---7---7-7-7-7-7---7-7---7-7-7--|
|-0---0---0-0-0-0-3---3-3---3-3-3----------------------------------|

  1   +   2   +   3   +   4   +   1   +   2   +   3   +   4   +

segue:
rest 2 measures

verse 3 is same as verse 2:

repeat chorus

outro:
|------------------------------------------------------------------|
|------------------------------------------------------------------|
|-----------------10--1010--101010---------------------------------|
|-7---7---7-7-7-7-----------------10--10--101010105---5-5---5-5-5--|x2

  1   +   2   +   3   +   4   +   1   +   2   +   3   +   4   +

|-----------------|
|-----------------|
|-----------------|
|-7---7---7-7-7-7-|

  1   +   2   +

so yeah that's it.  please rate.
            
Submit corrections


        Hatefuck lessons Hard to play? Try these video lessons and learn fast Hatefuck lessons
        
↑ Back to top | Tablatures and chords for acoustic guitar and electric guitar, ukulele, drums are parodies/interpretations of the original songs. You may use it for private study, scholarship, research or language learning purposes only