» » »

The Bravery - Hatefuck Tabs

Artists:  A B C D E F G H I J K L M N O P Q R S T U V W X Y Z # 

Hatefuck Tabs

(ver. 1) Click to play this song!
The Bravery
 Rating:
4.2/5 (5 votes)

 Hatefuck lessons Tabs too difficult? Try these video lessons and learn fast
 
                -----------------------------------------------------------------------------
-----------------------------------------------------------------------------

Tuning: Standard

hopefully its pretty good.

"Hatef**k" is a new song by The Bravery from their new album "Stir the Blood"

Intro/Chorus (Guitar for Keyboard)
e|---------------15----15-17---14----14----12---12-14-----------------------|
B|---15-12-15-12----15------------15----15----14----------------------------|
G|-----------------------------------------------------------------------3X-|
D|--------------------------------------------------------------------------|
A|--------------------------------------------------------------------------|
E|--------------------------------------------------------------------------|

Intro (Comes in after Guitar 1 plays intro once)
e|----------------------------------------------------------------------------|
B|----------------------------------------------------------------------------|
G|--4-44444---12-1212121212---7-77777---6-66666-------------------------------|
D|--4-44444---12-1212121212---7-77777---6-66666---------------------------2X--|
A|--2-22222---10-1010101010---5-55555---4-44444-------------------------------|
E|----------------------------------------------------------------------------|

(Above riff is played lightly until the chorus)


Chorus
e|----------------------------------------------------------------------------|
B|----------------------------------------------------------------------------|
G|--4-44444---12-1212121212---7-77777-----------------------------------------|
D|--4-44444---12-1212121212---7-77777---7-77777---------------------------4X--|
A|--2-22222---10-1010101010---5-55555---7-77777-(Don't play the 4th time)-----|
E|--------------------------------------5-55555-------------------------------|

Play Chorus 2 more times

I have yet to figure the solo out.


=============================================================================
            
Submit corrections


        Hatefuck lessons Hard to play? Try these video lessons and learn fast Hatefuck lessons
        
↑ Back to top | Tablatures and chords for acoustic guitar and electric guitar, ukulele, drums are parodies/interpretations of the original songs. You may use it for private study, scholarship, research or language learning purposes only