» » »

The Bravery - Hatefuck Bass

Artists:  A B C D E F G H I J K L M N O P Q R S T U V W X Y Z # 

Hatefuck Bass

(ver. 1) Click to play this song!
The Bravery
 Rating:
4.2/5 (5 votes)

 Hatefuck lessons Tabs too difficult? Try these video lessons and learn fast
 
                ----------------------------------------------------------------------------
---------------------------------------------------------------------------
This is BRAND NEW, off their third studio album, Stir The Blood, which won't be out till 

Tuning:Standard

0:08-51
G|--------------------------------------------------------------------------|
D|--------------------------------------------------------------------------|
A|--5-5-5-5-5-5-5-5-4-4-4-4-4-4-4-4-----------------------------------------|
E|-----------------------------------7-7-7-7-7-7-7-7-7-7-7-7-7-7-7-7--------|

0:51-53 (just once)
G|--------------------------------------------------------------------------|
D|--------------------------------------------------------------------------|
A|--5-5-5-5-5-5-5-5-4-4-4-4-4-4-4-4-----------------------------------------|
E|--------------------------------------------------------------------------|
                                            ... and there will
0:53-1:06 (Chorus)
G|--------------------------------------------------------------------------|
D|--------------------------------------------------------------------------|
A|----------10-10-10-10-5-5-5-5-4-4-4-4-------------------------------------|
E|-7-7-7-7------------------------------------------------------------------|
   be no tenderness...

1:06-1:10
G|--------------------------------------------------------------------------|
D|--------------------------------------------------------------------------|
A|---------10-10-10-10------------------------------------------------------|
E|-7-7-7-7-------------7-7-7-7-7-7-7-7--------------------------------------|

1:10-1:27
G|--------------------------------------------------------------------------|
D|--------------------------------------------------------------------------|
A|----------------------------------5-5-5-5-5-5-5-5-4-4-4-4-4-4-4-4---------|
E|--7-7-7-7-7-7-7-7-7-7-7-7-7-7-7-7-----------------------------------------|

1:27-1:30
G|--------------------------------------------------------------------------|
D|--------------------------------------------------------------------------|
A|-----------------------------------5-5-5-5-5-5-5-5-4----------------------|
E|-7-7-7-7-7-7-7-7-7-7-7-7-7-7-7-7-7----------------------------------------|

1:32-1:48
G|--------------------------------------------------------------------------|
D|--------------------------------------------------------------------------|
A|----------10-10-10-10-5-5-5-5-4-4-4-4-------------------------------------|
E|-7-7-7-7------------------------------------------------------------------|

1:49-2:06  (guitar Solo)
G|--------------------------------------------------------------------------|
D|--------------------------------------------------------------------------|
A|------------------------------------3-3-3-3-3-3-3-3-0-0-0-0-0-0-0-0-------|
E|--0-0-0-0-0-0-0-0-0-3-3-3-3-3-3-3-3---------------------------------------|

2:11-2:26
G|--------------------------------------------------------------------------|
D|--------------------------------------------------------------------------|
A|----------------------------------5-5-5-5-5-5-5-5-4-4-4-4-4-4-4-4---------|
E|--7-7-7-7-7-7-7-7-7-7-7-7-7-7-7-7-----------------------------------------|

2:27-2:55
G|--------------------------------------------------------------------------|
D|--------------------------------------------------------------------------|
A|----------10-10-10-10-5-5-5-5-4-4-4-4-------------------------------------|
E|-7-7-7-7------------------------------------------------------------------|
            
Submit corrections


        Hatefuck lessons Hard to play? Try these video lessons and learn fast Hatefuck lessons
        
↑ Back to top | Tablatures and chords for acoustic guitar and electric guitar, ukulele, drums are parodies/interpretations of the original songs. You may use it for private study, scholarship, research or language learning purposes only