Home » T » The Bravery »

The Bravery - Fearless Bass

Artists:  A B C D E F G H I J K L M N O P Q R S T U V W X Y Z # 

Fearless Bass

(ver. 2) Click to play this song!
The Bravery
 Rating:
4.3/5 (6 votes)
                FEARLESS
The Bravery

Taken from the Island album The Bravery (2005)


Standard tuning: E A D G

Pause

Fig. 1a (9x)
|---------------7-----------------9--|
|------9-----------------7-----------|
|----------4-/5--------------5-/7----|
|-5-/7--------------3-/5-------------|

Fig. 1b (1x)
|---------------7-----------------9------|
|------9-----------------7---------------|
|----------4-/5--------------5-/7---7-\--|
|-5-/7--------------3-/5-----------------|

Fig. 2a (1x)
|----------------------------------------------------------------------|
|----------------------------------------------------------------------|
| ----------------------------------2-2-2-2-2-2-2-2-2-2-2-2-2-2-2-2----|
|-3-3-3-3-3-3-3-3-3-3-3-3-3-3-3-3--------------------------------------|

|--------|------------------------------------------------------------------|
| REPEAT-|------------------------------------------------------------------|
|--------| -0-0-0-0-0-0-0-0-0-0-0-0-0-0-0-0------------------7-7-7-7-7-7----|
|--------|-----------------------------------3-3-3-3-3-3-3-3/---------------|

| --------------------------------------|
| --------------------------------------|
|-7-7/-14-14-14-14-14-14-14-14----------|
| --------------------------------------|

Fig. 1a (3x)
Fig. 1b (1x)

Fig. 2b (1x)
| --------------------------------------4-4-----2-4------4-4------2-4---|
| ----------------------------------------------------------------------|
| ----------------------------------2-2-----2-2-----2-2------2-2--------|
|-3-3-3-3-3-3-3-3-3-3-3-3-3-3-3-3---------------------------------------|

|---------------------------------------9-9-----7-9-----9-9-----9-\-----|
| ----------------------------------------------------------------------|
| ----------------------------5---5-7-7-----7-7-----7-7-----7-7---------|
|-3-3-3-3-3-3-3-3-3-3-3-3-3---7-----------------------------------------|

Pause
Fig. 1a (3x)
Fig. 1b (1x)

Fig. 2c (1x)
|----------------------------------------------------------------------|
|----------------------------------------------------------------------|
| ----------------------------------2-2-2-2-2-2-2-2-2-2-2-2-2-2-2-2----|
|-3-3-3-3-3-3-3-3-3-3-3-3-3-3-3-3--------------------------------------|

|--------|------------------7-7-7-7-7-7-7-7--------------------------------|
|-REPEAT-|-5-5-5-5-5-5-5-5-------------------------------------------------|
|--------|-----------------------------------2-2-2-2-2-2-2-2-2-2-2-2-2-2---|
|--------|-----------------------------------------------------------------|

|-------------------------------------------------------------9-9-----9--------|
|------------------------------------------------------------------------------|
|-2-2-0-0-0-0-0-0-0-0-0-0-0-0-0-0-0-0-------------------7-7-----7-7---7/-14----|
|---------------------------------------3-3-3-3-3-3-3-3/-----------------------|

|------------------------------|
|------------------------------|
| 14-14-14-14-14-14-14---------|
|------------------------------|

Fig. 1a (7x)
Fig. 1b (1x)

End (1x)
|----------|
|----------|
| -2-2-2-2-|
|----------|
            
Submit corrections

↑ Back to top | Tablatures and chords for acoustic guitar and electric guitar, ukulele, drums are parodies/interpretations of the original songs. You may use it for private study, scholarship, research or language learning purposes only