» » »

The Bravery - Fearless Tabs

Artists:  A B C D E F G H I J K L M N O P Q R S T U V W X Y Z # 

Fearless Tabs

(ver. 1) Click to play this song!
The Bravery
 Rating:
4/5 (4 votes)

 Fearless lessons Tabs too difficult? Try these video lessons and learn fast
 
                The Bravery
I tabbed the first solo, and it sounds 100% right when I play it.
The outro solo will come soon. Other than that this is a complete tab. 

Base intro for guitar
E|--------------------------------|
B|--------------------------------|
G|--------------------------------|
D|--------------------------------|
A|------4/5-5-------5/7-7---------|
E|5/7-7-------4/5-5---------------|

Guitar Intro starts at 0:23
E|--------------------------------|
B|------------------55------------|
G|44-xx-77-xx-22-xx-44-xx---------|
D|44-xx-77-xx-22-xx-22-xx---------|  x4
A|22-xx-55-xx-00-xx----xx---------|
E|--------------------------------|

No Guitar in Verse 1 

Chorus (Fearless, Fearless, Oh)
E|------------------------------------|
B|------------------------------------|
G|--------4444------------4444--------|
D|5555----4444-x4-5555----4444-x4-----|
A|5555-x4-2222----5555-x4-2222--------|
E|3333------------3333----------------|

E|------------------------------------|
B|------------------------------------|
G|----------------4444----------------|
D|7777----5555----4444-x2-------------|
A|7777-x4-5555-x4-2222----------------|
E|5555----3333------------------------|

Intro again
E|--------------------------------|
B|------------------55------------|
G|44-xx-77-xx-22-xx-44-xx---------|
D|44-xx-77-xx-22-xx-22-xx---------| x4
A|22-xx-55-xx-00-xx----xx---------|
E|--------------------------------|

Solo 1
E|------------------------------------|
B|------------------------------------|
G|9b-9b-9-7---7-9b-9b-9-7---7---------|
D|----------9-------------9-----------|
A|------------------------------------|
E|------------------------------------|

E|------------------------------------|
B|---7----7---7----7----7---7---7---7-|
G|7-----7---6---4-----7---7---6---4---|
D|------------------------------------|
A|------------------------------------|
E|------------------------------------|

E|------------------------------------|
B|------------------------------------|
G|9b-9b-9-7---7-9b-9b-9-7---7---------|
D|----------9-------------9-----------|
A|------------------------------------|
E|------------------------------------|

E|----------------------------------------------------|
B|---9----9----12----12---14b-14b-15p14p12-14-12~~----|
G|-9----9----9-----9----------------------------------|
D|----------------------------------------------------|
A|----------------------------------------------------|
E|----------------------------------------------------|

E|--------------------------------------------------------|
B|------16---15----14-12~~------12/-----------------------|
G|9--11----9----9-----------------------------------------|
D|--------------------------------------------------------|
A|--------------------------------------------------------|
E|--------------------------------------------------------|

This might be easier than the above, it's all preference.
E|------11---10----9---------------------------------|
B|--------------------12~~-12/-----------------------|
G|9--11----9----9------------------------------------|
D|---------------------------------------------------|
A|---------------------------------------------------|
E|---------------------------------------------------|

No Guitar  for Verse 2

Chorus
E|------------------------------------------------|
B|------------------------------------------------|
G|--------4444------------4444------------4444----|
D|5555----4444-x4-5555----4444-x4-5555----4444-x4-|
A|5555-x4-2222----5555-x4-2222----5555-x4-2222----|
E|3333------------3333------------3333------------|

E|------------------------------------|
B|------------------------------------|
G|----------------4444----------------|
D|7777----5555----4444-x2-------------|
A|7777-x4-5555-x4-2222----------------|
E|5555----3333------------------------|

Intro to end of the song
E|--------------------------------|
B|------------------55------------|
G|44-xx-77-xx-22-xx-44-xx---------|
D|44-xx-77-xx-22-xx-22-xx---------|  
A|22-xx-55-xx-00-xx----xx---------|
E|--------------------------------|

Outro Solo will come when I finish tabbing it out.
            
Submit corrections


        Fearless lessons Hard to play? Try these video lessons and learn fast Fearless lessons
        
↑ Back to top | Tablatures and chords for acoustic guitar and electric guitar, ukulele, drums are parodies/interpretations of the original songs. You may use it for private study, scholarship, research or language learning purposes only