Home » T » The Bravery »

The Bravery - Fearless Bass

Artists:  A B C D E F G H I J K L M N O P Q R S T U V W X Y Z # 

Fearless Bass

(ver. 1) Click to play this song!
The Bravery
 Rating:
4/5 (10 votes)
                (0:14)
G|--|----------7---------------9-----|----------7---------------9-----|
D|--|--9---------------7-------------|--9---------------7-------------|
A|--|------4/5-------------6/7-------|------4/5-------------6/7-----6\|
E|6/|7-------------4/5-------------6/|7-------------4/5---------------|


(0:50)
G|--------------------------------|--------------------------------|
D|--------------------------------|--------------------------------|
A|--------------------------------|2-2-2-2-2-2-2-2-2-2-2-2-2-2-2-2-|
E|3-3-3-3-3-3-3-3-3-3-3-3-3-3-3-3-|--------------------------------|

G|--------------------------------|--------------------------------|
D|--------------------------------|--------------------------------|
A|--------------------------------|2-2-2-2-2-2-2-2-2-2-2-2-2-2-2-2-|
E|3-3-3-3-3-3-3-3-3-3-3-3-3-3-3-3-|--------------------------------|

G|--------------------------------|--------------------------------|
D|--------------------------------|--------------------------------|
A|--------------------------------|----------------7-7-7-7-7-7-7-7-|
E|5-5-5-5-5-5-5-5-5-5-5-5-5-5-5-5-|3-3-3-3-3-3-5-7-----------------|

G|--------------------------------|
D|--------------------------------|
A|--------------------------------|
E|7-7-7-7-7-7-7-7-7---------------|


(1:14) - Same as (0:14)


(1:29)
G|--------------------------------|----4-4-----2h4-----4-4-----2h4-|
D|--------------------------------|--------------------------------|
A|--------------------------------|2-2-----2-2-----2-2-----2-2-----|
E|3-3-3-3-3-3-3-3-3-3-3-3-3-3-3-5-|--------------------------------|

G|--------------------------------|----9-9-----7h9-----9-9-----9\\\|
D|--------------------------------|--------------------------------|
A|--------------------------------|7-7-----7-7-----7-7-----7-7-----|
E|3-3-3-3-3-3-3-3-3-3-3-3-3-3-5-7-|--------------------------------|


(1:49) - Same as (0:14)


(2:04)
G|--------------------------------|--------------------------------|
D|--------------------------------|--------------------------------|
A|--------------------------------|2-2-2-2-2-2-2-2-2-2-2-2-2-2-2-2-|
E|3-3-3-3-3-3-3-3-3-3-3-3-3-3-3-5-|--------------------------------|

G|--------------------------------|--------------------------------|
D|--------------------------------|--------------------------------|
A|--------------------------------|2-2-2-2-2-2-2-2-2-2-2-2-2-2-2-2-|
E|3-3-3-3-3-3-3-3-3-3-3-3-3-3-3-5-|--------------------------------|

G|--------------------------------|--------------------------------|
D|--------------------------------|--------------------------------|
A|----------------5-5-5-5-5-5-5h7-|2-2-2-2-2-2-2-2-2-2-2-2-2-2-2-2-|
E|3-3-3-3-3-3-3-3-----------------|--------------------------------|

G|--------------------------------|--------------------------------|
D|--------------------------------|--------------------------------|
A|--------------------------------|----------------7-7-7-7-7-7-7-7-|
E|5-5-5-5-5-5-5-5-5-5-5-5-5-5-5-5-|3-3-3-3-3-3-5-7-----------------|

G|--------------------------------|
D|--------------------------------|
A|--------------------------------|
E|7-7-7-7-7-7-7-7-7-7-7-7-7-7-7\\\|


(2:35) - Same as (0:14)


End on - 
G|--|-----------------------------|
D|--|-----------------------------|
A|--|-----------------------------|
E|6/|7-7\\\-----------------------|
            
Submit corrections

↑ Back to top | Tablatures and chords for acoustic guitar and electric guitar, ukulele, drums are parodies/interpretations of the original songs. You may use it for private study, scholarship, research or language learning purposes only