» » »

The All American Rejects - Mona Lisa Tabs

Artists:  A B C D E F G H I J K L M N O P Q R S T U V W X Y Z # 

Mona Lisa Tabs

(ver. 2) Click to play this song!
The All American Rejects
 Rating:
4/5 (4 votes)

 Mona Lisa lessons Tabs too difficult? Try these video lessons and learn fast
 
                ----------------------------------------------------------------------------
                             Mona Lisa - All-American Rejects
----------------------------------------------------------------------------


Intro
e|-------------------------------------------------------------------------|
B|---------3---------------------------------------------------------------|
G|------------4------------------------------------------------------------|
D|-------5-------5-0h4-5------5-7-5----------------------------------------|
A|--(5)-------------------0h5----------------------------------------------|
E|---3---------------------------------------------------------------------|

        (Let ring)

Verse
e|-------------------------------------------------------------------------|
B|---------3-------------3-----------3------3-------3----------------------|
G|--------------------------0-----------0------0--------0------------------|
D|-------5--------0h4-5---------0---------0------0---------0---------------|
A|---------------------------------3---------------------------------------|
E|---3---------------------------------------------------------------------|

e|------------------------------------------------------0------------------|
B|---------3-------------3-----------3------3--------3-----3---------------|
G|--------------------------0-----------0------0---------------------------|
D|-------5--------0h4-5---------0---------0------0-------------------------|
A|---------------------------------3---------------------------------------|
E|---3---------------------------------------------------------------------|

Pre-Chorus

e|---3---3----3-3-3---2--2---2-2-3--3---3--3-3--3-3---2-2-2---|
B|---3---3----3-3-3---3--3---3-3-3--3---3--3-3--3-3---3-3-3---|
G|---0---0----0-0-0---2--2---2-2-0--0---0--0-0--0-0---2-2-2---|
D|---2---2----2-2-2---0--0---0-0-2--2---2--2-2--2-2---0-0-0---|
A|---2---2----2-2-2--------------3--3---3--3-3--3-3-----------|
E|---0---0----0-0-0-------------------------------------------|

Chorus (x4)

e|---3---3-3---3-3-3---2--2---3--3-3----|
B|---3---3-3---3-3-3---3--3---3--3-3----|
G|---0---0-0---0-0-0---2--2---0--0-0----|
D|---0---0-0---0-0-0---0--0---2--2-2----|
A|---2---2-2---2-2-2----------3--3-3----|
E|---3---3-3---3-3-3--------------------|

(Intro)

Verse

e|---3---3-3---3-3-3---2--2---3--3-3--2-2-2-|
B|---3---3-3---3-3-3---3--3---3--3-3--3-3-3-|
G|---0---0-0---0-0-0---2--2---0--0-0--2-2-2-|
D|---0---0-0---0-0-0---0--0---2--2-2--0-0-0-|
A|---2---2-2---2-2-2----------3--3-3--------|
E|---3---3-3---3-3-3------------------------|

(Pre-chorus)
(Chorus)

Bridge

e|---3---3----3-3---3--3-3--3--3-3--3-3--2--2-2--2--3--3---3-3--3--3-3--3--|
B|---3---3----3-3---3--3-3--3--3-3--3-3--3--3-3--3--3--3---3-3--3--3-3--3--|
G|---0---0----0-0---0--0-0--0--0-0--0-0--2--2-2--2--0--0---0-0--0--0-0--0--|
D|---2---2----2-2---2--2-2--2--0-0--0-0--0--0-0--0--2--2---2-2--2--2-2--2--|
A|---2---2----2-2---3--3-3--3--2-2--2-2-------------2--2---2-2--3--3-3--3--|
E|---0---0----0-0--------------3-3--3-3-------------0--0---0-0-------------|

e|---3---3-3---3-3-3---2--2---3--3-3----|
B|---3---3-3---3-3-3---3--3---3--3-3----|
G|---0---0-0---0-0-0---2--2---0--0-0----| (x4)
D|---0---0-0---0-0-0---0--0---2--2-2----|
A|---2---2-2---2-2-2----------3--3-3----|
E|---3---3-3---3-3-3--------------------|

(Chorus)

| /  slide up
| \  slide down
| h  hammer-on
| p  pull-off
| ~  vibrato
| +  harmonic
| x  Mute note
=============================================================================
            
Submit corrections


        Mona Lisa lessons Hard to play? Try these video lessons and learn fast Mona Lisa lessons
        
↑ Back to top | Tablatures and chords for acoustic guitar and electric guitar, ukulele, drums are parodies/interpretations of the original songs. You may use it for private study, scholarship, research or language learning purposes only