» » »

The All American Rejects - Mona Lisa Tabs

Artists:  A B C D E F G H I J K L M N O P Q R S T U V W X Y Z # 

Mona Lisa Tabs

(ver. 1) Click to play this song!
The All American Rejects
 Rating:
4/5 (4 votes)

 Mona Lisa lessons Tabs too difficult? Try these video lessons and learn fast
 
                G/B:320033
D:000232
Cadd9:032033
Em: 02200
Em7:022033
Dsus4:000233    BEFORE YOU PLAY: Play the last line slowly and listen to the song to get 
rhythm and chord transitions.

Intro:
e|---------------------------------------------------------------------------|
B|---------3--0--------------------------------------------------------------|
G|-------0-------0-----------------------------------------------------------|
D|-----------------0h4-5------5-7-5------------------------------------------|
A|------------------------0h3------------------------------------------------|
E|---3-----------------------------------------------------------------------|

It can also be done like this:
e|--------------------------------------------------------------------------|
B|---------3----------------------------------------------------------------|
G|-------0--4----0----0--------Oh2-0----------------------------------------|
D|-----------------0h4------------------------------------------------------|
A|------------------------0h3-----------------------------------------------|
E|---3----------------------------------------------------------------------|

Intro x4


e|---------------------------------------------------------------------------|
B|---------3--------------3---------3---3---3--------------------------------|
G|-------0----4---0----0----0------0--0---0----0-0---------------------------|
D|-----------------0h4---------0--2-----2---2------2-------------------------|
A|-------------------------------3-------------------------------------------|
E|---3-----------------------------------------------------------------------|
    Here's another pity          and there's another chance


e|--------------------------------------------0------------------------------|
B|---------3--------------3---------3---3---3---3----------------------------|
G|-------0----4---0----0----0---------0---0-------0--------------------------|
D|-----------------0h4---------0--------2---2--------------------------------|
A|-------------------------------3-------------------------------------------|
E|---3-----------------------------------------------------------------------|
   You tried to learn a lesson, but you can't

e|---------------------------------------------------------------------------|
B|---------3--------------3---------3---3---3--------------------------------|
G|-------0----4---0----0----0------0--0---0----0-----------------------------|
D|-----------------0h4---------0--2-----2---2----2---------------------------|
A|-------------------------------3-----------------3-------------------------|
E|---3-----------------------------------------------------------------------|
   If we can burn a city, in future's and in past's

Em                    D                     Cadd9
Without a change our lives will never last
Cadd9              D
Cause' were going fast

Chorus:
G/B                              D         Cadd9
You can sit beside me when the world comes down
G/B                        D               Cadd9
If it doesn't matter then just turn around
G/B                                 D         Cadd9
We don't need our bags, and we can just leave town
G/B                              D         Cadd9
You can sit beside me when the world comes down

Intro x2

G/B              D     Cadd9
What can we do better? When will we know how?
G/B                  D                  Cadd9
A man says from a sidewalk to the crowd
G/B                     D            Cadd9
If we can change the weather, if you want it to yourself
Em                    D               Cadd9
Well if you can't,I guess we all need help
Cadd9         D
Cause I need help

Chorus:

G/B                              D         Cadd9
You can sit beside me when the world comes down
G/B                             D          Cadd9
If it doesn't matter than just turn around
G/B                                 D         Cadd9
We don't need our bags, and we can just leave town
G/B                              D         Cadd9
You can sit beside me when the world comes down
   Em7    Dsus4
We say, we do
Cadd9
The lies, the truth
Em        Dsus4        D
And all I need is next to me

G/B  D Cadd9 x4

Cadd9        D
We're going fast
G/B                              D         Cadd9
You can sit beside me when the world comes down
G/B                             D          Cadd9
If it doesn't matter than just turn around
G/B                    D           Cadd9
You be the queen, and I'll be your clown
G/B                              D         Cadd9
You can sit beside me when the world comes down
(hummed melody) G/B D Cadd9 x4
Em7                         Cadd9
You can sit beside when the world comes...
Em7                              D   Cadd9  G/B
You can sit beside me when the world comes down
            
Submit corrections


        Mona Lisa lessons Hard to play? Try these video lessons and learn fast Mona Lisa lessons
        
↑ Back to top | Tablatures and chords for acoustic guitar and electric guitar, ukulele, drums are parodies/interpretations of the original songs. You may use it for private study, scholarship, research or language learning purposes only