» » »

The All American Rejects - Mona Lisa Chords

Artists:  A B C D E F G H I J K L M N O P Q R S T U V W X Y Z # 

Mona Lisa Chords

(ver. 1) Click to play this song!
The All American Rejects
 Rating:
4/5 (4 votes)

 Mona Lisa lessons Tabs too difficult? Try these video lessons and learn fast
 
                Intro
e|-----------------------------|
B|-------3--0------------------|
G|-----0------0----0-----0h20--|
D|--------------0h4------------|
A|-------------------0h3-------|
E|--3--------------------------|


Verse 1
e|-----------------------------------------------------------------|
B|---------3-0------------3---------------3------3-------3---------|
G|-------0-------------0-----0--------0-----0------0--------0------|
D|-----------------0h4-----------0------------0------0---------0---|
A|----------------------------------3------------------------------|
E|---3-------------------------------------------------------------|

e|------------------------------------------------------0---------|
B|---------3-0------------3-----------3------3--------3-----3-----|
G|-------0-------------0-----0-----------0------0-----------------|
D|-----------------0h4-----------0---------0------0---------------|
A|----------------------------------3-----------------------------|
E|---3------------------------------------------------------------| (x2)

Here's another pity there's another chance
Try to learn a lesson but you can't.
If we can burn a city in futures and in past,


Em7                    D                  Cadd9
without a change our lives will never last
                   D
Cause' we're going fast


CHORUS

G                               D          Cadd9
You can sit beside me when the world comes down

G                                D            Cadd9
if it doesn't matter then just turn around

    G                         D           Cadd9
We don't need our bags and we can just leave town

G                               D          Cadd9
You can sit beside me when the world comes down

e|-----------------------------|
B|-------3--0------------------|
G|-----0------0----0-----0h20--|
D|--------------0h4------------|
A|-------------------0h3-------|
E|--3--------------------------| (x2)

Verse 2

G                D       Cadd9
What can we do better, when will we know how

G                   D                 Cadd9    D
A man says from a sidewalk to a crowd

G                      D              Cadd9
If we can change the weather, if you want it to yourself

Em7             D             Cadd9                 D
If you cannot guess we all need help, yeah, I need help

CHORUS

G                               D          Cadd9
You can sit beside me when the world comes down

G                                D            Cadd9
if it doesn't matter then just turn around

    G                         D           Cadd9
We don't need our bags and we can just leave town

G                               D          Cadd9
You can sit beside me when the world comes down


Bridge

    Em7         Cadd9           G               D
We say       We do         The lies       The truth

 Em7     D             G
All I need is next to me


Interlude

G - D - Cadd9 (x4) - the 4th time you do this, the note lengths aredifferent and the end 
rolls into the next part

Cadd9                       D
Mmmmmmmmm we're going fast


G                                D           Cadd9
You can sit beside me when the world comes down

G                               D           Cadd9
if it doesn't matter then just turn around

G                      D            Cadd9
You be the queen and i'll be your clown

G                                D           Cadd9
You can sit beside me when the world comes down
            
Submit corrections


        Mona Lisa lessons Hard to play? Try these video lessons and learn fast Mona Lisa lessons
        
↑ Back to top | Tablatures and chords for acoustic guitar and electric guitar, ukulele, drums are parodies/interpretations of the original songs. You may use it for private study, scholarship, research or language learning purposes only