Home » T » The Album Leaf »

The Album Leaf - Eastern Glow Tabs

Artists:  A B C D E F G H I J K L M N O P Q R S T U V W X Y Z # 

Eastern Glow Tabs

(ver. 1) Click to play this song!
The Album Leaf
Band: The Album Leaf
was acoustic so this not is not an actual tab of the song just
the way i think it sounds good played on a guitar.

CAPO 2nd FRET!!

Ive tabbed the guitar part seperately to just the simple
chords

LEAD GUITAR:

Intro:

e--------------------------------------------------------------|
b--------------------------------------------------------------|
g-----0-------0--------0-------0-------------------------------|
d---2-------2--------0-------0---------------------------------|
a-0-------0----------------------------------------------------|
e------------------3-------3-----------------------------------|

e--------3----------3------0----------0------------------------|
b--0--1-------0--1-----------3--1-0-----3--1-0-----------------|
g--------------------------------------------------------------|
d--------------------------------------------------------------|
a--0----------0------------------------------------------------|
e----------------------------3----------3----------------------|

Verse 1:

e--------------------------------------------------------------|
b--------------------------------------------------------------|
g-----0-------0--------0-------0-------------------------------|
d---2-------2--------0-------0---------------------------------|
a-0-------0----------------------------------------------------|
e------------------3-------3-----------------------------------|

Verse 2:

e--------3----------3------------------------------------------|
b--0--1-------0--1-----------0----------0----------------------|
g-------------------------------0----------0-------------------|
d--------------------------------------------------------------|
a--0----------0------------------------------------------------|
e----------------------------3----------3----------------------|

Break:

e--------------------------------------------------------------|
b--------------------------------------------------------------|
g------0-----0-----0-----0-----0-----0-----0-----0-------------|
d----2-----2-----2-----2-----0-----0-----0-----0---------------|
a--0-----0-----0-----0-----------------------------------------|
e--------------------------3-----3-----3-----3-----------------|

RHYTHM GUITAR:

	Chords
	eadgbe
	320033	G
	133211	F
	xx0231	Dm
	x02010	Am7
	x02000	A7sus2
	x02013	Am7*

Intro: as above /\

Verse 1: as above /\

	One by one

	We force ourselves

	Turn it on

	It comes in waves

	Try to find

	Maybe this time

	Don't turn your head

	it's easy to forget how we were

Verse 2:
	A7sus2  Am7 Am7*
	Once    inside
	      A7s2 Am7  Am7*
	We've made it   here
           G
	We struggle with the lights
	     G
	They never go away

             A7sus2 Am7  Am7*
	What have   we   learned
	         A7sus2   Am7 Am7*
	It's the same     old things
             G
	That drive us here
	    G
	And never go away
	       A7sus2  Am7  Am7*
	We are changed

	A7sus2 Am7 Am7* A7sus2 Am7 Am7*
	G	G       G	G
	A7sus2 Am7 Am7* A7sus2 Am7 Am7*
	G	G       G	G
 	F	        Dm
	F		Dm

	Then play the break

Verse 3:
	A7sus2  Am7 Am7*
	Through the tides
        A7sus2  Am7  Am7*
       	Make    your way
               G
	You'll find the time
          G
	A comfort inside


        A7sus2 Am7 Am7*
	Here   I   wait
        A7sus2 Am7  Am7*
	In the safe place
        G             G
	Where we were so many years ago
        G
	So many years agao


        A7sus2  Am7  Am7*
	One     by   one
           A7sus2  Am7 Am7*
	We close   our eyes
            G
	And turn to leopards
             G
	As a thousand nights go by


        A7sus2  Am7  Am7*
	One     by   one
           A7sus2  Am7 Am7*
	We close   our eyes
            G
	And turn to leopards
             G
	As a thousand nights went by

	F		Dm
	F		Dm

	Please rate!
            
Submit corrections

↑ Back to top | Tablatures and chords for acoustic guitar and electric guitar, ukulele, drums are parodies/interpretations of the original songs. You may use it for private study, scholarship, research or language learning purposes only